Cifra Club

Red Rabbits

The Shins

Tab de bajo: Principal
Wincing The Night Away (2007)
tabbed by Derrrikb

Verse 1
|--------------------|------------------------|
|-6---6-6--------3-4-|--6---6-6---3---3-4-(4)-|
|----------4---4-----|------------------------|
|--------------------|------------------------|

|--------------------|--------------------8----|
|-6---6-6---3---3-3--|--8---8-8---8--9---------|
|--------------------|-------------------------|
|--------------------|-------------------------|x2

|--------------------|------------------------|
|-6---6-6--------3-4-|--6---6-6---3---3-4-(4)-|
|----------4---4-----|------------------------|
|--------------------|------------------------|

|--------------------|----------------6----8---|
|-6---6-6---3---3-3--|--8---8-8---8------------|
|--------------------|-------------------------|
|--------------------|-------------------------|


Chorus
|--------------|--------------|--------------|--------------|
|--------------|-6----6----6--|-4----4----4--|-6----6----6--|
|-4----4----4--|--------------|--------------|--------------|
|--------------|--------------|--------------|--------------|

|--------------|--------------|--------------|---------------|
|--------------|--------------|-6----6----6--|-4---6---4---6-|
|-4----4----4--|-6----6----6--|--------------|---------------|
|--------------|--------------|--------------|---------------|

|--------------|--------------|
|--------------|--------------|
|-4----4----4--|-6~-----------|
|--------------|--------------|



Verse 2
|--------------------|------------------------|
|-6---6-6--------3-4-|--6---6-6---3---3-4-(4)-|
|----------4---4-----|------------------------|
|--------------------|------------------------|

|--------------------|------------------------|
|-6---6-6--------3-4-|--6---6-6---3---3-4-(4)-|
|----------4---4-----|------------------------|
|--------------------|------------------------|

|--------------------|--------------------8----|
|-6---6-6---3---3-3--|--8---8-8---8--9---------|
|--------------------|-------------------------|
|--------------------|-------------------------|

|--------------------|------------------------|
|-6---6-6--------3-4-|--6---6-6---3---3-4-(4)-|
|----------4---4-----|------------------------|
|--------------------|------------------------|

|--------------------|----------------6----8---|
|-6---6-6---3---3-3--|--8---8-8---8------------|
|--------------------|-------------------------|
|--------------------|-------------------------|


Chorus


Bridge
|-------------|--------------|--------------|--------------|
|-------------|-6----6----6--|--------------|--------------|
|-------------|--------------|-4----4----4--|-6----6----6--|
|-7----7----7-|--------------|--------------|--------------|

|-------------|--------------|--------------|--------------|
|-------------|-6----6----6--|--------------|--------------|
|-------------|--------------|-4----4----4--|-6----6----6--|
|-7----7----7-|--------------|--------------|--------------|

|-------------|--------------|--------------|--------------|
|-------------|-6----6----6--|--------------|--------------|
|-------------|--------------|-4----4----4--|-6----6----6--|
|-7----7----7-|--------------|--------------|--------------|

|-------------|--------------|--------------|
|-------------|--------------|--------------|
|-6----6----6-|-6----6----6--|-6~-----------|
|-------------|--------------|--------------|




String solo
|--------------------|------------------------|
|-6-----6--------3-4-|--6---6-6---3---3-4-(4)-|
|----------4---4-----|------------------------|
|--------------------|------------------------|

|--------------------|--------------------8----|
|-6---6-6---3---3-3--|--8---8-8---8--9---------|
|--------------------|-------------------------|
|--------------------|-------------------------|

|--------------------|------------------------|
|-6-----6--------3-4-|--6---6-6---3---3-4-(4)-|
|----------4---4-----|------------------------|
|--------------------|------------------------|

|--------------------|----------------6----8---|
|-6---6-6---3---3-3--|--8---8-8---8------------|
|--------------------|-------------------------|
|--------------------|-------------------------|


Outro
|--------------|--------------|--------------|--------------|
|--------------|-6----6----6--|-4----4----4--|-6----6----6--|
|-4----4----4--|--------------|--------------|--------------|
|--------------|--------------|--------------|--------------|

|--------------|--------------|--------------|---------------|
|--------------|--------------|-6----6----6--|-4---6---4---6-|
|-4----4----4--|-6----6----6--|--------------|---------------|
|--------------|--------------|--------------|---------------|

|---------------|---------------|--------------|--------------|
|-4---6---4---6-|-4---6---4---6-|--------------|--------------|
|---------------|---------------|-4----4----4--|-6~-----------|
|---------------|---------------|--------------|--------------|

|-------------|
|-------------|
|-------------|
|-4~----------|
Composición de James Mercer
11 vistas

0 comentarios

Ver todos los comentarios

¿Lograste tocar?

0 Tocaron 0 Aún no

¡Graba un video tocando Red Rabbits y envíanoslo!

00:00 / 00:00
Outros vídeos desta música
Repetir Calidad Automático
Outros vídeos desta música
00:00 / 00:00
Automático
OK