Cifra Club

Turn On Me

The Shins

Tab de bajo: Principal
Acompaña nuestras novedades de Cifra Club en español.
¡Sigue nuestro perfil en Instagram!
  (Tabbed by w7w7w7)



Intro
G|-----------------------------------------------------|
D|-----------------------------------------------------|
A|----7-8-10-------7-8-7-----7-0-3-----2-3-2-----2-----|
E|-8------------8---------8---------3---------3----1-3-|



Verse #1
G|------------ ----------------------------------------|
D|------------ ----------------------------------------|
A|----7-8-10-- ----7-8-7-----7-0-3-----2-3-2-----2-----| x2
E|-8---------- -8---------8---------3---------3----1-3-|
            
  \ only the /
   first time


Chorus #1
G|-----------------------------------------------------|
D|---------10--10-----------------10-9-7---------------|
A|-8--88-8-------10---10-10--10----------10------------|
E|-----------------------------------------------------|

G|-----------------------------------------------------|
D|--------5-------5----5--5---5---10-9-7---------------|
A|-8--88-8---3--3-------------------------10-----------| x2
E|-----------------------------------------------------|

G|------------------------------ ----------------------| 
D|---------10--10--------------- ----------------------|
A|-8--88-8-------10---10-10--10- -5-557788-10-88-77-55-|
E|------------------------------ ----------------------|



Verse #2
G|                   ----------------------------------|
D|    just guitar    ----------------------------------|
A|     and voice     -----2-3-2-----2------------------|
E|                   --3---------3----1-3--------------|

G|-----------------------------------------------------|
D|-----------------------------------------------------|
A|----7-8-7-----7-0-3-----2-3-2-----2------------------| x3
E|-8---------8---------3---------3----1-3--------------|



Chorus #2
G|-----------------------------------------------------|
D|---------10--10-----------------10-9-7---------------|
A|-8--88-8-------10---10-10--10----------10------------|
E|-----------------------------------------------------|

G|-----------------------------------------------------|
D|--------5-------5----5--5---5---10-9-7---------------|
A|-8--88-8---3--3-------------------------10-----------| x2
E|-----------------------------------------------------|

G|-----------------------------------------------------| 
D|---------10--10--------------------------------------|
A|-8--88-8-------10---10-10--10------------------------|
E|-----------------------------------------------------|

G|-----------------------------------------------------|
D|-----------------------------------------------------|
A|-5-557788-10-101010101010----------------------------| x2
E|-----------------------------------------------------|

G|-----------------------------------------------------|
D|-----------------------------------------------------|
A|-5-55-7-5---0-0-2-3-3-5------------------------------|
E|------------------------3----------------------------|


Verse #1 x 4

Chorus #2
Composición de James Mercer
7 vistas

0 comentarios

Ver todos los comentarios

¿Lograste tocar?

0 Tocaron 0 Aún no

¡Graba un video tocando Turn On Me y envíanoslo!

00:00 / 00:00
Outros vídeos desta música
Repetir Calidad Automático
Outros vídeos desta música
00:00 / 00:00
Automático
OK