Cifra Club

Hand in Glove

The Smiths

Cifrado: Principal (guitarra y guitarra eléctrica)
Selo Cifra Club: esta cifra foi revisada para atender aos critérios oficiais da nossa Equipe de Qualidade.
tono: D
Main Riff:

F#---0------------0-------------
C#-----0----1-0-----1_p_0-------
A -2------------2---------2_p_0-
E ------------------------------
B ------------------------------
F#------------------------------

F#---0------------0--------0----------
C#-----0----1-0------------3----------
A -2------------2---x_sl_4---x_sl_4-0-
E ------------------------------------
B ------------------------------------
F#------------------------------------

Chords:

F#m   - 022000
D     - X32010
Bm    - X02210
Bsus2 - 002200
???   - X00000
A     - 355433

F#-0-0-0-0-0---x-0---0---0-0---0---0-0-0-0-0---x-0---0---x-3-x-3-
C#-0-0-0-1-1---x-1---1---1-1---0---0-0-0-1-1---x-0---0---x-3-x-3-
A -0-0-0-0-0---x-2---2---0-0---0---0-0-0-0-0---x-2---2---x-4-x-4-
E -2-2-2-2-2---x-2---2---2-2---0---2-2-2-2-2---x-2---2---x-5-x-5-
B -2-2-2-3-3---x-0---0---3-3---0---2-2-2-3-3---x-0---0---x-5---5-
F#-0-0-0---------------------------0-0-0-------------------3---3-
Otros videos de esta canción
    1.243 exhibiciones
      • ½ Tono
      • A
      • Bb
      • B
      • C
      • Db
      • D
      • Eb
      • E
      • F
      • F#
      • G
      • Ab
    • Agregar a la lista

    Afinação da cifra

    Afinador online

      Ops (: Contenido disponible solo en portugués.
      OK