Cifra Club

Well I Wonder

The Smiths

Cifrado: Principal (guitarra y guitarra eléctrica)
tono: D (con acordes en la forma de C) Capotraste en 2ª casa
introdução:
E|---------------3---|
B|--1---------1--1---|
G|--2---2-----2--2---|
D|--2---3-----2--3---|
A|------3------------|
E|-------------------|

verso:
E|--1/0----------------------------------------|
B|--3/1-----3/0-------1/0-----1/0----3/1/3-----|
G|--------------------2/0-----2/2----4/2/4-----|
D|--2/2-----2/2-------2/2-----3/3----5/3/5-----|
A|--3/3-----2/2---------------3/3----5/3/5-----|
E|---------------------------------------------|

refrão:  ("well i wonder, please keep me in mind" agudo)
E|--1/0---------------------|
B|--3/3----1/0-----3/1/3----|
G|--2/2----2/2-----4/2/4----|  repetir 2x, voltar à introdução
D|---------3/3-----5/3/5----|
A|---------3/3-----5/3/5----|
E|--------------------------|

no segundo refrão, isto é tocado:
E|---------5----0---------|
B|-------6-------6--------|
G|-----7------7----7-5----|
D|------------------------|
A|------------------------|
E|------------------------|
Instrumental do final:

Parte A:
E|-------------------------------------------------------|
B|------8-----8----------8---------8---------------------|
G|----9---9-----9----------------------------------------|
D|--7-------7-----7-9-10---10-9-10-----------------------|
A|-------------------------------------------------------|
E|-------------------------------------------------------|

 Parte B:
E|-------------------------------------------------------|
B|------8-----8------------------------------------------|
G|----9---9-----9-------9---10---9-----------------------|
D|--7-------7-----7-9-7---7----7-------------------------|
A|-------------------------------------------------------|
E|-------------------------------------------------------|

 Parte C:
E|-------------------------------------------------------|
B|------8-----8-------------8----------------------------|
G|----9---9-----9-------9-----9--------------------------|
D|--7-------7-----7-9-7---7------------------------------|
A|-------------------------------------------------------|
E|-------------------------------------------------------|

 Parte D:
E|-------------------------------------------------------|
B|------8-----8------------------------------------------|
G|----9---9-----9----------------------------------------|
D|--7-------7-----7-9-10----10-9-10----------------------|
A|-----------------------10---------10-------------------|
E|-------------------------------------------------------|

Tocar na seguinte ordem: A,B,A,C,A,C,D

O acorde final é:
E|-------------------------------------------------------|
B|--8----------------------------------------------------|
G|--9----------------------------------------------------|
D|--7----------------------------------------------------|
A|--0----------------------------------------------------|
E|-------------------------------------------------------|
00:00 / 00:00
Otros videos de esta canción
Repetir
Otros videos de esta canción
Composición de Johnny Marr / Morrissey
Colaboración y revisión:
  • Gabriel Cabistani
  • Raul Silva
1.275 vistas
    • ½ Tono
    • A
    • Bb
    • B
    • C
    • Db
    • D
    • Eb
    • E
    • F
    • F#
    • G
    • Ab
  • Agregar a la lista

    0 comentarios

    Ver todos los comentarios

    ¿Lograste tocar?

    1 Tocaron 0 Aún no

    ¡Graba un video tocando Well I Wonder y envíanoslo!

    00:00 / 00:00
    OK