Cifra Club

3685

The Spill Canvas

Chords: Principal (acoustic and electric guitars)
tone: Bb
Intro
e|---x-x-x-x-------------------------------------------------------------------------|
B|---x-x-x-x-x--------------------------------8/6----------------------7-------------|
G|---x-x-x-x-x----8--------------10-8-----------8-5-------------------8--------------|
D|---x-x-x-x-x----8--8-----8/10/8----10-8----------8-5--------8/10/8-----------------|
A|---x-x-x-x-x-6-----8---------------------------------8-6---------------------------|
D|---x-x-x-x-x--5-------6------------------5--------------8-6------------------------|

Verse
e|-----------------------------------------------------------------------------------|
B|----------------------------------------------------7------------------------------|
G|-----8--------------10-8---------8-----------------8-------------------------------|
D|-----8--8-----8/10/8----10-8-----8--8------8/10/8----------------------------------|
A|--------8----------------------------8---------------------------------------------|
D|--5--------6------------------5---------6------------------------------------------|

Pre-Chorus
e|--3--1-------3--1--------1----4--------------------------------------------|
B|--3--1-------3--1--------1----4--------------------------------------------|
G|--5--3--6----5--3--6----3----6---------------------------------------------|
D|--5--3--6----5--3--6----3----6---------------------------------------------|
A|--3--1--8/6--3--1--8/6--1----4---------------------------------------------|
D|--------6----------6-------------------------------------------------------|

Chorus
e|--6-6-6-6-6-----/6--3-3-3-3-------6-6-6-6-6-----/6---3-3-3-1--------------------|
B|--6-6-6-6-9/8/6-/6--3-3-3-4-------6-6-6-6-9/8/6-/6---3-3-4-1--------------------|
G|--8-8-8-8-6/6/10/8--5-5-5-3--6---8-8-8-8-6/6/10/8---5-5-3-3--6------------------|
D|--6-6-6-6-6-----/6--5-5-5-5--6---6-6-6-6-6-----/6---5-5-5-3--6------------------|
A|--6-6-6-6-6-----/6--3-3-3-3--8/6-6-6-6-6-6-----/6---3-3-3-1--8/6----------------|
D|--6-6-6-6-6-----/6-----------6---6-6-6-6-6-----/6-------------6-----------------|

e|------------------------------|
B|------------------------------|
G|------------------------------|
D|-------13-----------13--------|
A|-----11--11-11---10--10-10----|
D|--11------11--10------10------|

Bridge
e|--4--3----5--6--------------------------------------------------------------|
B|--4--4----5--8--------------------------------------------------------------|
G|--6--3----5--6--------------------------------------------------------------|
D|--6--5----5--6----(repeat 8x)-----------------------------------------------|
A|--4--3----5--6--------------------------------------------------------------|
D|----------5--6--------------------------------------------------------------|


intro
verse
pre-chorus
chorus
intro
verse
pre-chorus
chorus
chorus
bridge
00:00 / 00:00
Other videos of this song
Repeat
Other videos of this song
59 views
    • ½ Tone
    • A
    • Bb
    • B
    • C
    • Db
    • D
    • Eb
    • E
    • F
    • F#
    • G
    • Ab
  • Add to list

Afinação da cifra

Afinador online

    00:00 / 00:00
    OK