Cifra Club

Home Sick Intro

The Spill Canvas

Chords: Principal (acoustic and electric guitars)
tone: A
Tabbed by:*
Tuning: Drop d tuning.

This is my very first tab so if it isnt right then just tell me some correction or send me an
email.

Intro:

E|-3-3---------------4p2p0--0-0------------|
A|-3-3----------4p2p0-------0-0---5-5------|
D|-3-3-----4p2p0------------0-0---7-7------|
G|--------------------------------7-7------|
B|-----------------------------------------|
E|-----------------------------------------|

E|-3-3---------------4p2p0--0-0-x-x-2-33---|
A|-3-3----------4p2p0-------0-0-x-x-2-33---|
D|-3-3-----4p2p0------------0-0-x-x-2-33---|
G|-----------------------------------------|
B|-----------------------------------------|
E|-----------------------------------------|
you do the intro twice then this other part comes 
in that I havent tabbed yet  but i will soon.
00:00 / 00:00
Other videos of this song
Repeat
Other videos of this song
10 views
    • ½ Tone
    • A
    • Bb
    • B
    • C
    • Db
    • D
    • Eb
    • E
    • F
    • F#
    • G
    • Ab
  • Add to list

Afinação da cifra

Afinador online

    00:00 / 00:00
    OK