Cifra Club

Home Sick

The Spill Canvas

Chords: Principal (acoustic and electric guitars)
tone: F
Homesick
5 Song demo
Tabbed By: JJ Murphy
Tuning: Eb Ab Db Gb Bb eb

I'm working on the second guitar part, so this is just the lead guitar and intro. =)

Intro (PS - This is all upstrokes.)

Guitar 1:
|--------------------------------------|
|--------------------------------------|
|--------------------------------------|
|-5-5-x-3p1-------3-3-5-55-x-3p1-------|
|-5-5-x----3p1----3-3-5-55-x----3p1----|
|-3-3-x-------3p1-1-1-3-33-x-------3p1-| (add guitar 2 here...then repeat)

guitar 2 adds:
|-------------------------------------------|
|-------------------------------------------|
|--------------------------------------3----|
|--------------------------------------0----|
|----------------------------------------3--|
|-----------------------------------------3-|


    After Intro add this lick: (This is actually guitar 2,
                        but for one guitar it works pretty well. ;D)
|-------------|
|-------------|
|-3-33--3-----|
|--------0----|
|-----3---3---|
|----------3--|


Verse

Guitar 1:
|----------|
|----------|
|----------|
|-5x---5-5-|
|-5x---5-5-|
|-3x---3-3-|  repeat twice. Then on the third repeat, strike all the strings (muted) 
then repeat that for basically the entire song.

Guitar 2:  (I think its something like this...)
|---------|
|---------|
|-33333---|
|-----0---|
|------3--|
|-------3-|

(then at other times doing this....)
|-------------|
|-------------|
|-33335533----|
|---------0---|
|----------3--|
|-----------3-|


Ending (after the "yeah yeah yeah")
(listen for chord changes. the "......" means repeat until then)

|-----------------|
|-----------------|
|-----------------|
|-5.......3.......
|-5.......3.......
|-3.......1.......   repeat.

For the final chord...strike this:

|--
|--
|--
|-2
|-2
|-x
00:00 / 00:00
Other videos of this song
Repeat
Other videos of this song
8 views
    • ½ Tone
    • A
    • Bb
    • B
    • C
    • Db
    • D
    • Eb
    • E
    • F
    • F#
    • G
    • Ab
  • Add to list

Afinação da cifra

Afinador online

    00:00 / 00:00
    OK