Cifra Club

One Thing Is For Sure Intro

The Spill Canvas

Chords: Principal (acoustic and electric guitars)
tone: F
intro
HALF STEP DOWN TUNING.
Am, C, Em, Csus.


|-------------------|
|-1-1-1-----------3-|
|-2-0-------------0-|
|-2-2-2-- end on -2-|
|---3-2-----------3-|
|-------------------|

|----3---------|
|-3h5----------|
|------7-9-5-7-|
|------7-9-5-7-|
|------5-7-3-5-|
|--------------|
00:00 / 00:00
Other videos of this song
Repeat
Other videos of this song
11 views
    • ½ Tone
    • A
    • Bb
    • B
    • C
    • Db
    • D
    • Eb
    • E
    • F
    • F#
    • G
    • Ab
  • Add to list

Afinação da cifra

Afinador online

    00:00 / 00:00
    OK