Cifra Club

Saved

The Spill Canvas

Chords: Principal (acoustic and electric guitars)
tone: A
Superman/No Really, I'm Fine
Half Step Down
JJ Murphy 

strumming not shown for chorus and verse and intro!!
|-------------|
|-3-/10--7--5-|
|-2-/9---7--4-|
|-0--0---0--0-|
|-0--0---0--0-|
|-0--0---0--0-|

"I am unraveling..." strumming partly shown
|-----------------------------|
|-----------------------------|
|-----------------------------|
|-99999999-55555555-777777777-|
|-99999999-55555555-777777777-|
|-77777777-33333333-555555555-|

Chorus
|-----------|
|-----------|
|-7---------|
|-7-7-5-7-7-|
|-5-7-5-7-7-|
|---5-3-9-5-|

verse
|-------------|
|-------------|
|-7-14-12-7-7-|
|-7-14-12-7-7-|
|-5-12-10-9-5-|
|-------------|
00:00 / 00:00
Other videos of this song
Repeat
Other videos of this song
94 views
    • ½ Tone
    • A
    • Bb
    • B
    • C
    • Db
    • D
    • Eb
    • E
    • F
    • F#
    • G
    • Ab
  • Add to list

Afinação da cifra

Afinador online

    00:00 / 00:00
    OK