Cifra Club

The Truth

The Spill Canvas

Chords: Principal (acoustic and electric guitars)
tone: F
Intro, chords shown only, not strumming.
|-----------------|
|-1---1---1---0---|
|-0---0---2---2---|
|-2---0---2---2---|
|-3---3-----------|
|-----------------|

verse something like this
|------------------------|
|---5---5---5---5h6p5-3--|
|-55--55--55--55---------|
|------------------------|
|------------------------|
|------------------------|
|------------------------|

Chorus
|---------------|
|---------------|
|-5-----5-------|
|-5-5-7-5-5-3-5-|
|-3-5-7-3-5-3-5-|
|---3-5---3-1-3-|
00:00 / 00:00
Other videos of this song
Repeat
Other videos of this song
13 views
    • ½ Tone
    • A
    • Bb
    • B
    • C
    • Db
    • D
    • Eb
    • E
    • F
    • F#
    • G
    • Ab
  • Add to list

Afinação da cifra

Afinador online

    00:00 / 00:00
    OK