Cifra Club

Aprenda

Autography

The Starting Line

Tablatura: Principal (guitarra)
tono: C
I'm pretty sure it's all right.....but you might 
have to listen to get some of the strumming.

Standard Tuning

Intro/Chorus
e|--------------------------------------|
B|--------------------------------------|
G|--55--55--5--5-5-5--------------------|
D|--55--55--5--5-5-5---33--33--3--------| x2
A|--33--33--3--3-3-3---33--33--3--------|
E|---------------------11--11--1--------|

Verse
e|---------------------------------------------|
B|---------------------------------------------|
G|--55--55---------55--55---7-7-5--7-7-5-------|
D|--55--55--3-3-3--55--55---7-7-5--7-7-5-------| x2
A|--33--33--3-3-3--33--33---5-5-3--5-5-3-------|
E|----------1-1-1------------------------------|

Pre Chorus
e|-------------------------------------------------------|
B|-------------------------------------------------------|
G|------5-4-----5-4-----5-4-----5-4-----5-2-----5-2------|
D|----5-------5-------5-------5-------5-------5----------|
A|--7-------7-------3-------3-------7-------7------------|
E|-------------------------------------------------------|

e|---------------------------------------------|
B|---------------------------------------------|
G|------5-4-----5-4-----5-2-----5-2-----5-2----|
D|----5-------5-------5-------5-------5--------|
A|--7-------7-------7-------7-------7----------|
E|---------------------------------------------|


Repeat Chorus x2


Part after Chorus
e|----------------------------------------------|
B|----------------------------------------------|
G|--5-5-5--5---5-5-5--5-------------------------|
D|--5-5-5--5---5-5-5--5---3-3-3--3---5-5-5--5---| x2
A|--3-3-3--3---3-3-3--3---3-3-3--3---5-5-5--5---|
E|------------------------1-1-1--1---3-3-3--3---|


Repeat Verse x2


Repeat Pre Chorus x1


Repeat Chorus x2


Bridge
e|-------------------------------------------------------------|
B|-------------------------------------------------------------|
G|--5555-5-55-5-5-5-5--------------------5555-5-55-5-5-5-5-----|
D|--5555-5-55-5-5-5-5---3333-3-33-3-33---5555-5-55-5-5-5-5-----|
A|--3333-3-33-3-3-3-3---3333-3-33-3-33---3333-3-33-3-3-3-3-----|
E|----------------------1111-1-11-1-11-------------------------|

e|----------------------------------------------------|
B|----------------------------------------------------|
G|----------------5555-5-55-5-5-5-5-------------------|
D|--3333-3-33-3---5555-5-55-5-5-5-5---3333-3-33-3-----|
A|--3333-3-33-3---3333-3-33-3-3-3-3---3333-3-33-3-----|
E|--1111-1-11-1-----------------------1111-1-11-1-----|


Repeat after Chorus x2


Ending:
Repeat Chorus x1


I'm not sure if it's 100%, but it sounds good!
Composição de The Starting Line
40 reproducciones
    • ½ Tono
    • A
    • Bb
    • B
    • C
    • Db
    • D
    • Eb
    • E
    • F
    • F#
    • G
    • Ab
  • Adicionar à lista

    0 comentarios

    Ver todos os comentários

    ¿Conseguiste tocar?

    0 Tocaram 0 Ainda não

    Grave um vídeo tocando Autography e nos envie!

    00:00 / 00:00
    outros vídeos desta música
    repetir qualidade Automático
    Outros vídeos desta música
    00:00 / 00:00
    Automático
    OK