Cifra Club

Aprenda

Break Up Day

The Starting Line

Tablatura: Principal (guitarra)
tono: D
tuning: standard


intro
|-------------------------------------------------------------------------------|
|---5-5p4-4h5---5-5p4-4h5---5-5p4-4h5---5-7p5-4h5-------------------------------|
|-55----------55----------55----------55----------------------------------------|
|-------------------------------------------------------------------------------|
|-------------------------------------------------------------------------------|
|-------------------------------------------------------------------------------|

then play this after like twice

|----------------------|---------------------------------------------------------|
|----7p5-4h5 0~~~~-----|-then when it speed up play------5---5---5---------------|
|----------------------|-------------------------------55--55--55----------------|
|----------------------|---------------------------------------------------------|
|----------------------|---------------------------------------------------------|
|----------------------|---------------------------------------------------------|

|-------------------------------------------------------------------------------|
|-----5554440-5554440-0-54-0-4-4h5p4-7-5-4-0------------------------------------|
|-------------------------------------------------------------------------------|
|-------------------------------------------------------------------------------|
|-------------------------------------------------------------------------------|
|-------------------------------------------------------------------------------|
play like twice
|-------------------------------------------------------------------------------|
|-------------------------------------------------------------------------------|
|-------------------------------------------------------------------------------|
|-5555--------------------------------------------------------------------------|
|-3333-5555-77777-55555-33333---------------------------------------------------|
|------3333-55555-33333-11111---------------------------------------------------|

verse

|-------------------------------------------------------------------------------|
|-------------------------------------------------------------------------------|
|---5-77-57-5-77-57-repeat------------------------------------------------------|
|-------------------------------------------------------------------------------|
|-------------------------------------------------------------------------------|
|-------------------------------------------------------------------------------|

pre chorus

|-------------------------------------------------------------------------------|
|-------------------------------------------------------------------------------|
|-------------------------------------------------------------------------------|
|-55555---------------------555555----------------------------------------------|
|-33333-777777-55555555555--333333-777777-555555-3------------------------------|
|-------555555-33333333333---------555555-333333-1------------------------------|

chorus

|-------------------------------------------------------------------------------|
|-------------------------------------------------------------------------------|
|-------------------------------------------------------------------------------|
|-555555------------------------------------------------------------------------|
|-333333-777777-555555-33333----------------------------------------------------|
|--------555555-333333-11111----------------------------------------------------|

pre bridge

|-------------------------------------------------------------------------------|
|-------------------------------------------------------------------------------|
|-------------------------------------------------------------------------------|
|-------------------------------------------------------------------------------|
|-------------------------------------------------------------------------------|
|-5-57-78-810-then speed up later on--------------------------------------------|

bridge

|---------------------------------------------------------------------------------|
|---------------------------------------------------------------------------------|
|---------------------------------------------------------------------------------|
|---------------------------------------------------------------------------------|
|-7---7---7-5---5--5-3---3--3---5---5---------------------------------------------|
|-5xxx5xxx5-3xxx3xx3-1xxx1xx1xxx3xxx3xxx------------------------------------------|

---|


By Jesrie Calimbas:::
8 reproducciones
    • ½ Tono
    • A
    • Bb
    • B
    • C
    • Db
    • D
    • Eb
    • E
    • F
    • F#
    • G
    • Ab
  • Adicionar à lista

    0 comentarios

    Ver todos os comentários

    ¿Conseguiste tocar?

    0 Tocaram 0 Ainda não

    Grave um vídeo tocando Break Up Day e nos envie!

    00:00 / 00:00
    outros vídeos desta música
    repetir qualidade Automático
    Outros vídeos desta música
    00:00 / 00:00
    Automático
    OK