Cifra Club

Aprenda

Cheek To Cheek

The Starting Line

Tab de bajo: Principal
This isn't so hard to get down you just need to get the slides right and listen in
to what's going on. I hope you like it. It should sound perfect.

Check out my bands
*
*

EADG

/ slide up
\ slide down
_>_X how many times to play note
~ let it ring

wait for guitar to start a couple times

intro/verses
-----------------------------------------------|
-----------------------------------------------|
-----------------------------------------------|
8\11111111-33333333-55555555-66666666----------|

Intro part 2/pre-chorus/outro
------------------------------------------------------|
------------------------------------------------------|
----------------3>12X-8\3-3>8X-1>8X-------------------|
1111-1111--1111---------------------1>16-------  --1~-|

Chorus
-----------------------------------------------|
-----------------------------------------------|
------3>16-1>12X-1/8888-1>8X-1/8888-7777-------|
1>16X------------------------------------------|

-----------------------------------------------|
-----------------------------------------------|
------3333/5555/7777/8888-1>12X-1~-------------|
1>16X------------------------------------------|

Bridge/Interlude end
-----------------------------------------------|
-----------------------------------------------|
-----------------------------------------------|
1111-1111--11--1111-1111--11------8\1----------|
Composição de The Starting Line
36 reproducciones

0 comentarios

Ver todos os comentários

¿Conseguiste tocar?

0 Tocaram 0 Ainda não

Grave um vídeo tocando Cheek To Cheek e nos envie!

00:00 / 00:00
outros vídeos desta música
repetir qualidade Automático
Outros vídeos desta música
00:00 / 00:00
Automático
OK