Cifra Club

Aprenda

Direction Intro

The Starting Line

Tablatura: Principal (guitarra)
tono: C
Tabbed by: Sny6les
Email: S*

tab and I saw there wasnt any good tabs for this song so I thought Id give it a try of what 
think sounds good, I hope you enjoy.


Tuning: half step down


Intro part one                    PM*
e|-----------------------------------------|
B|-----------------------------------------|
G|-----------------------------------------|  repeat without mute notes or
D|--xx-55-55-55---------------10~-10-------|  palm mute.
A|--xx 77-66-55--/12-12-12----10~-10-x15---|
D|---------------/11-11-11\---10~-10-------|  * gradually release palm mute

Intro part two
e|------------------------------------|
B|------------------------------------|
G|------------------------------------|
D|--555-555-555------------10---------|    repeat with more of a strum
A|--777-666-555--12121212--10-x16-----|
D|---------------11111111--10---------|

verse
e|--------------------------------------------------------|
B|--------------------------------------------------------|
G|--------------------------------------------------------|
D|--2-0-2---------8-8b--------2-0-2-------5/8--8-7-8------|
A|--2-0-2---------8-8b--------2-0-2-------5/8--8-7-8------|
D|--2-0-2---------8-8b--------2-0-2-------5/8--8-7-8------|

e|----------------------------------------------------------|
B|----------------------------------------------------------|
G|----------------------------------------------------------|
D|--2-0-2-----------x-55555555-555555-----------------------|
A|--2-0-2-----8-----x-33333333-444444-----------------------|
D|--2-0-2-----7---------------------------------------------|

verse part 2
(basically a repeat with mute notes in between)
e|----------------------------------------------------------|
B|----------------------------------------------------------|
G|----------------------------------------------------------|
D|--2-0-2--xxxxxxxx--8-8b------2-0-2---xxxxxxxxx---7-8-7-8--|
A|--2-0-2--xxxxxxxx--8-8b------2-0-2---xxxxxxxxx---7-8-7-8--|
D|--2-0-2--xxxxxxxx--8-8b------2-0-2---xxxxxxxxx---7-8-7-8--|

e|------------------------0x-------------------------------|
B|------------------------0x-------------------------------|
G|----------3---3---3-----0x-------------------------------|
D|--2-0-2-----2---2---2---0x----55555555-555555------------|
A|--2-0-2-----------------------33333333-444444------------|
D|--2-0-2--------------------------------------------------|

repeat intro once


I havent got the chorus down enough to be comfortable to tab it, but once I do I'll put 
whole song up. Sorry for the lack of completion. Hope you enjoy! Any questions email me 
S*

| PM palm mute
| /  slide up
| \  slide down
| h  hammer-on
| p  pull-off
| ~  vibrato
| +  harmonic
| x  Mute note
============================================================================
5 reproducciones
    • ½ Tono
    • A
    • Bb
    • B
    • C
    • Db
    • D
    • Eb
    • E
    • F
    • F#
    • G
    • Ab
  • Adicionar à lista

    0 comentarios

    Ver todos os comentários

    ¿Conseguiste tocar?

    0 Tocaram 0 Ainda não

    Grave um vídeo tocando Direction Intro e nos envie!

    00:00 / 00:00
    outros vídeos desta música
    repetir qualidade Automático
    Outros vídeos desta música
    00:00 / 00:00
    Automático
    OK