Cifra Club

Aprenda

Drama Summer

The Starting Line

Tablatura: Principal (guitarra)
tono: G

Submitted By: Mike LaRose
EMail: BubaJ*


Intro

E----------------------------------------
B----------------------------------------
G---7---7---7---7---7--------------------
D---7---7---7---7---7--------------------
A---x---5---7---x---5--------------------
E---7---5-------7------------------------

Verse 1: We can wait for ...
E---------------------------------------
B---------------------------------------
G---7-------4---2-----------------------
D---5---5---4---2-----------------------
A---5---5---2---0-----------------------
E-------3-------------------------------

Verse 2:My eyes roll...           Dizzy with sun stroke
E--------------------------|--------------------------------
B--------------------------|--------------------------------
G---7-------4--------------|---7----------------------------
D---7---5---4--------------|---7---7---5--------------------
A---5---5---2--------------|---5---7---5--------------------
E-------3------------------|-------5---3--------------------

Chorus:I'll be there...              I'll pick up everything...
E--------------------------|-----------------------------------
B--------------------------|-----------------------------------
G---9---7---4---2----------|---7---4---------------------------
D---9---7---4---2---5------|---7---4---7---5-------------------
A---7---5---2---0---5------|---5---2---7---5-------------------
E-------------------3------|-----------5---3-------------------

Verse3:Cross your fingers...      Painting the town...
E------------------------|-----------------------------
B------------------------|-----------------------------
G---7-------4------------|---7-------------------------
D---7---5---4------------|---7---7---5-----------------
A---5---5---2------------|---5---7---5-----------------
E-------3----------------|-------5---3-----------------

Solo:
E--------------------------------  
B-------7-----7-----7---7--7-----
G------7-7---7-7---7-7---7-------
D-----7---7-7---7-7---7---7------
A----5-----5-----5---------------
E--------------------------------

Ending: Guess I'll call or see you around 
E---------------------------------------
B---------------------------------------
G---7---9---4---------------------------
D---7---9---4---5----------X6-----------
A---5---7---2---5-----------------------
E---------------3-----------------------

Outro: Painting the town your favorite colour
E---------------------------------
B---------------------------------
G---7-----------------------------
D---7---7---5---------------------
A---5---7---5---------------------
E-------5---3---------------------

================================================================================
8 reproducciones
    • ½ Tono
    • A
    • Bb
    • B
    • C
    • Db
    • D
    • Eb
    • E
    • F
    • F#
    • G
    • Ab
  • Adicionar à lista

    0 comentarios

    Ver todos os comentários

    ¿Conseguiste tocar?

    0 Tocaram 0 Ainda não

    Grave um vídeo tocando Drama Summer e nos envie!

    00:00 / 00:00
    outros vídeos desta música
    repetir qualidade Automático
    Outros vídeos desta música
    00:00 / 00:00
    Automático
    OK