Cifra Club

Aprenda

Gregs Last Day

The Starting Line

Tablatura: Principal (guitarra)
tono: B
By: Andrew (*)

Intro 
[Guitar 1]
e|-------------------------------------------------------------------------|
B|-------------------------------------------------------------------------|
G|-4-4-4-4-4-4-4--4-4-4-4/6-6-6-8-8-8-9-9-8-8-9-11-11-11-11-11-11-9-8-9----|
D|----------------------------------------------------------------------9--|
A|-------------------------------------------------------------------------|
E|-------------------------------------------------------------------------|

e|--------------------------------------------------|
B|--------------------------------------------------|
G|------11---------11--------11---------------------|
D|--8-9----9-9-8-9---9-9-8-9----9-9-8-9-8----11-9---|
A|----------------------------------------9---------|
E|--------------------------------------------------|

[Guitar 2]
e|---------------------------|
B|---------------------------|
G|--4------------------------|
D|--4----2---6---4---x2------|
A|--2----2---6---4-----------|
E|-------0---4---2-----------|

Verse
[Guitar 1]
e|-------------------------------------------------------------------------|
B|-------------------------------------------------------------------------|
G|--6-6--4-4--6-6--3/4-3/4--------6-4-4--6-6-3/4-3/4--6-6-8-8--9-9-9-9-9---|
D|--------------------------x2--4------------------------------------------|
A|-------------------------------------------------------------------------|
E|-------------------------------------------------------------------------|

e|-------------------------------------------------------|
B|-------------------------------------------------------|
G|--4-4-4-4-4--3-4-3----6------4-4-3-4-6-6-4-8-8/9-9-9---|
D|-------------------4-----x2----------------------------|
A|-------------------------------------------------------|
E|-------------------------------------------------------|

[Guitar 2]
e|-------------------------------------------------------------------------|
B|-------------------------------------------------------------------------|
G|----------------4-4--------------------------------------------------4---|
D|-2-2--4-4--6-6--4-4---x3--2-2--4-4--6-6-9-9---6-6-6-2-4--x2-6--4--2--4-4-|
A|-2-2--4-4--6-6--2-2-------2-2--4-4--6-6-9-9---6-6-6-2-4-----6--4--2--2-4-|
E|-0-0--2-2--4-4------------0-0--2-2--4-4-7-7---4-4-4-0-2-----4--2--0----2-|

Chorus

[Guitar 1]
e|--------------------------------------------------|
B|--------------------------------------------------|
G|------11---------11--------11---------------------|
D|--8-9----9-9-8-9---9-9-8-9----9-9-8-9-8----11-9---|
A|----------------------------------------9---------|
E|--------------------------------------------------|

[Guitar 2]
[Guitar 2]
e|---------------------------|
B|---------------------------|
G|--4---------------------4--|
D|--4----2---6---4---x2---4--|
A|--2----2---6---4--------2--|
E|-------0---4---2-----------|

Break Down 
[Guitar 1]
e|-------------------------------------------------------------------------|
B|-------------------------------------------------------------------------|
G|--4-4-4-4---4-4-4-4--4-4-4-4-3-3-3-4-4-----4-4-4-4-3-3-4-4-6-6-8-8-8-9-9-|
D|-------------------------------------------------------------------------|
A|----------------------------------------x2-------------------------------|
E|-------------------------------------------------------------------------|

e|------------------------------------------------|
B|------------------------------------------------|
G|--9--11--13--11-9-9-8-9-8-6-6-4--9-8-6-4-4------|
D|--x--x---x---x--x-x-x-x-x-x-x-x--x-x-x-x-x--4---|
A|--7--9---11--9--7-7-6-7-6-4-4-2--7-6-4-2-2--4---|
E|--------------------------------------------2---|

[Guitar 2] (The whole time)
e|-------------------------|
B|-------------------------|
G|-----------------4-4-----|
D|-2-2--4-4--6-6---4-4-----|
A|-2-2--4-4--6-6---2-4-----|
E|-0-0--2-2--4-4-----------|
10 reproducciones
    • ½ Tono
    • A
    • Bb
    • B
    • C
    • Db
    • D
    • Eb
    • E
    • F
    • F#
    • G
    • Ab
  • Adicionar à lista

    0 comentarios

    Ver todos os comentários

    ¿Conseguiste tocar?

    0 Tocaram 0 Ainda não

    Grave um vídeo tocando Gregs Last Day e nos envie!

    00:00 / 00:00
    outros vídeos desta música
    repetir qualidade Automático
    Outros vídeos desta música
    00:00 / 00:00
    Automático
    OK