Cifra Club

Aprenda

Inspired By The

The Starting Line

Tablatura: Principal (guitarra)
tono: E
Intro/verse
e----------------------------------------------------------|
B----------------------------------------------------------|
G----------------------------------------------------------|
D---2------------2------------2------4-2---4--------44-----|
A-44-4-44444-3-44-4-44444-3-44-4-4444----22--2-2222-22-----|
D----------4-3----------4-3--------------------------------|
  **   ****    **   ****    **   ****    **    ****
e-------------------------------------------------------------------------------------------|
B-------------------------------------------------------------------------------------------|
G-------------------------------------------------------------------------------------------|
D-6666666-----66666666--------------------------66666666-----6666666------------------------|
A-4444444-4-4-44444444-4-4-777777777-9999999999-44444446-4-4-4444444-4-4-77777777-99999999--|
D-4444444-4-4-44444444-4-4-777777777-9999999999-44444444-4-4-4444444-4-4-77777777-99999999--|

chorus
e-------------------------------------------------------------------------------------------|
B-------------------------------------------------------------------------------------------|
G-------------------------------------------------------------------------------------------|
D-6666666-----66666666-------------------------66666666-----66666666------------------------|
A-4444444-4-4-44444444-4-4-777777777-999999999-44444444-4-4-44444444-4-4-77777777-999999999-|
D-4444444-4-4-44444444-4-4-777777777-999999999-44444444-4-4-44444444-4-4-77777777-999999999-|

bridge
e---------------------------------------------|
B---------------------------------------------|
G---------------------------------------------|
D--2------2------2----------------------------| Repeat
A-4--2-0-4--2-0-4--2-0 4444-42-0-444444444444-|
D--------------------------------444444444444-|

bridge continued
e--------------------------------------------------|
B--------------------------------------------------|
G--------------------------------------------------|
D-22-2-22-2-22-2-22--------------------------------|
A-44-4-44-4-44-4-444444-42-0-----------------------|
D----------------------------444444-66666-77777-10-|

End On
e---
B---
G---
D----
A-10-
D-10-
12 reproducciones
    • ½ Tono
    • A
    • Bb
    • B
    • C
    • Db
    • D
    • Eb
    • E
    • F
    • F#
    • G
    • Ab
  • Adicionar à lista

    0 comentarios

    Ver todos os comentários

    ¿Conseguiste tocar?

    0 Tocaram 0 Ainda não

    Grave um vídeo tocando Inspired By The e nos envie!

    00:00 / 00:00
    outros vídeos desta música
    repetir qualidade Automático
    Outros vídeos desta música
    00:00 / 00:00
    Automático
    OK