Cifra Club

Aprenda

Making Love To The Camera

The Starting Line

Tab de bajo: Principal
Tabbed By : SdTuEoVlEcN
e-mail: *

Tuning:standard



G|----------------------------------------------------------------------|
D|----------------------------------------------------------------------|
A|-------------------4444444444444444444--------------------------------|
E|--00000000000000000---------------------------------------------------|


G|-------------------------------------|
D|-------------------------------------|Repeat this three times then add
A|--000000000-444444444-22222222-------|
E|-------------------------------------|

G|--------------------------------------------------------------------|
D|--------------------------------------------------------------------|
A|--000000000-44444444-222222222-----------444444444444-0-------------|
E|------------------------------22222222222---------------------------|

chorus- not actual number of notes 

G|------------------------------------------------------------------------|
D|------------------------------------------------------------------------|
A|------------00000000-44444444444-2222222222-----------------------------|
E|-22-22-22-22------------------------------------------------------------|

bridge thing 

G|--------------------------------------------------------|
D|--------------------------------------------------------|
A|--0-2-4-2---0-2-4-2---0-2-4-2---0-2-4-2-----------------|
E|-2-------4-2-------4-2-------4-2-------4----------------|

instead of playing 2 wiht gaps just play 2 straight 
G|-----------------------------------------------------------------------|
D|-----------------------------------------------------------------------|
A|-----------0000000000-4444444444-222222222222--------------------------|
E|-2222222222------------------------------------------------------------|

| /  slide up
| \  slide down
| h  hammer-on
| p  pull-off
| ~  vibrato
| +  harmonic
| x  Mute note
===============================================================================
Composição de The Starting Line
6 reproducciones

0 comentarios

Ver todos os comentários

¿Conseguiste tocar?

0 Tocaram 0 Ainda não

Grave um vídeo tocando Making Love To The Camera e nos envie!

00:00 / 00:00
outros vídeos desta música
repetir qualidade Automático
Outros vídeos desta música
00:00 / 00:00
Automático
OK