Cifra Club

12 51

The Strokes

Tablatura: Principal (guitarra)
Tom: G
E |--12------     E|-----
B |----12----     B|---9-
G |------x---     G|---9-
D |--------14 x2  D|---9-
A |----------     A|-----
E |----------     E|-----

E |------------------------------------
B |--10-------9--------10-------9------
G |--9---x16--9---x16--9---x16--9---x16
D |--10-------9--------10-------9------
A |------------------------------------
E |------------------------------------

E |---------------------------------------------
B |---------------------------------------------
G |---------------------------------------------
D |---------------------------------------------
A |--2---x8pm--/7---x8pm--\4---x8pm--/9---x8pm--
E |--0---------/5---------\2---------/7---------

E |-----------------------------
B |-----------------------------
G |---9-------\6-------\4-------
D |---9---x8--\6---x4--\4---x4--
A |---7-------\4-------\2-------
E |-----------------------------

E |---------------------------------------------
B |---------------------------------------------
G |--4-----------9---(x8)--6---(x8)--11---(x8)--
D |--2----(x8)---7---------4---------9----------
A |--x------------------------------------------
E |--0------------------------------------------

E |-----------
B |--9------9-
G |--9------9-
D |--9------9-
A |-----------
E |-----------

E |----------------|---------------
B |--/9-57-59-7--5-|-7-45-47-5--4--
G |----------------|---------------
D |----------------|---------------
A |----------------|---------------
E |----------------|---------------

E |--------------|---------------|--------------|--------------
B |--9-57-59-7-5-|-7-45-47-5-4---|9-57-512-10-9-|7-45-47-5-4---
G |--------------|---------------|--------------|--------------
D |--------------|---------------|--------------|--------------
A |--------------|---------------|--------------|--------------
E |--------------|---------------|--------------|--------------

E |-------------------------------------------------------
B |--/12--9-7-9---/12--9--7--9---/12--9-7-9---\5--9--7--9-
G |-------------------------------------------------------
D |-------------------------------------------------------
A |-------------------------------------------------------
E |-------------------------------------------------------

E |--------------|-------------|-------------|-------------|
B |--13-15-12-13-|-17-15-------|-13-15-12-13-|-17-15-------|
G |--------------|-------17-16-|-------------|-------17-16-|
D |--------------|-------------|-------------|-------------|
A |--------------|-------------|-------------|-------------|
E |--------------|-------------|-------------|-------------|

E |------------------------|-------------|-------------|--------------
B |--17--15-13-12----15-12-|-17-15-------|-13-15-12-13-|-17-15--------
G |----------------14------|-------17-16-|-------------|-------17-16~-
D |----14--------14--------|-------------|-------------|--------------
A |------------------------|-------------|-------------|--------------
E |------------------------|-------------|-------------|--------------
reproducciones 1.489
Acordes para:
    Composição: Julian Casablancas Colaboración y revision:
    • Matheus Araújo
    • Paulo Filho

    0 comentarios

    mostrar más comentarios

    ¿Conseguiste tocar?

    2 tocaron 0 aún no

    ¡Graba un vídeo tocando 12 51 y envianoslo!

    00:00 / 00:00
    outros vídeos desta música
    repetir qualidade Automático
    Outros vídeos desta música
    00:00 / 00:00
    Automático
    OK