Cifra Club

12:51

The Strokes

Tablatura: Principal (guitarra)
Tom: E
(intro) Am   E

E|-12--------12----|-----|
B|---12--------12--|-----|
G|-----------------|-1---|
D|-----------------|-2---|
A|-----------------|-----|
E|-----------------|-----|

(verso)

( E  A  F#m  B )

Talk to me now I'm older
E|-----------------------|
B|-9------------9--------|
G|----9--11--9-----11--9-|
D|-----------------------|
A|-----------------------|
E|-----------------------|

Your friend told you 'cause I told her
E|-----------------------|
B|-----------------------|
G|-11--8--9--8--11--9--8-|
D|-----------------------|
A|-----------------------|
E|-----------------------|

Friday nights have been lonely
E|-----------------------|
B|-9------------9--------|
G|----9--11--9-----11--9-|
D|-----------------------|
A|-----------------------|
E|-----------------------|

Change your plans and then phone me
E|-----------------------|
B|-----------------------|
G|-11--8--9--8--11--9--8-|
D|-----------------------|
A|-----------------------|
E|-----------------------|

(ponte)  E  C#m  B

E|--------------------------------------------------------------|
B|-12--9------9--12--12--9------9--12--9------9-----9-----------|
G|--------11----------------11------------11----9-9----11---9---| (2x)
D|--------------------------------------------------------------|
A|--------------------------------------------------------------|
E|--------------------------------------------------------------|

E|--------------------------------------------------------------|
B|-12--9------9--12--12--9------9--12--9------9-----9-----------|
G|--------11----------------11------------11----9-9----11---9---|
D|--------------------------------------------------------------|
A|--------------------------------------------------------------|
E|--------------------------------------------------------------|

We could go and get fourties
E|-----------------------|
B|-9------------9--------|
G|----9--11--9-----11--9-|
D|-----------------------|
A|-----------------------|
E|-----------------------|

Fuck goin' to that party
E|-----------------------|
B|-----------------------|
G|-11--8--9--8--11--9--8-|
D|-----------------------|
A|-----------------------|
E|-----------------------|

Oh really your folks are away now?
E|---------------------------|
B|-9------------12--10--9----|
G|----9--11--9---------------|
D|---------------------------|
A|---------------------------|
E|---------------------------|

Alright let's go  you convinced me
E|-----------------------|
B|-----------------------|
G|-11--8--9--8--11--9--8-|
D|-----------------------|
A|-----------------------|
E|-----------------------|

E|--------------------------------------------------------------|
B|-12--9------9--12--12--9------9--12--9------9-----9-----------|
G|--------11----------------11------------11----9-9----11---9---|
D|--------------------------------------------------------------|
A|--------------------------------------------------------------|
E|--------------------------------------------------------------|

E|--------------------------------------------------------------|
B|-12--9------9--12--12--9------9--12--9------9-----9-----------|
G|--------11----------------11------------11----9-9----11---9---|
D|--------------------------------------------------------------|
A|--------------------------------------------------------------|
E|--------------------------------------------------------------|

(1:17)
E|-------8--10---7---8---------------------12--10------------
B|--------------------------------------------------13---12--
G|-----------------------------------------------------------
D|-----------------------------------------------------------
A|-----------------------------------------------------------
E|-----------------------------------------------------------

E|-------8--10---7---8----------------------12--10-----------
B|---------------------------------------------------13--12--
G|-----------------------------------------------------------
D|-----------------------------------------------------------
A|-----------------------------------------------------------
E|-----------------------------------------------------------

E|----12-----------10-10-----------------------------------10----------------
B|-----------10----------------13-13-12-------------10---------9-------------
G|-----------------------------------------9---------------------------------
D|---------------------------------------------------------------------------
A|---------------------------------------------------------------------------
E|---------------------------------------------------------------------------

E|----12--10-------------
B|------------13--12-----
G|-----------------------
D|-----------------------
A|-----------------------
E|-----------------------

E|-------8--10---7-8---------------------12--10--------------
B|-----------------------------------------------13---12-----
G|-----------------------------------------------------------
D|-----------------------------------------------------------
A|-----------------------------------------------------------
E|-----------------------------------------------------------

Am           E
12:51 is the time my voice
           Am
Found the words I sought
            E
Is it the stage I want?
     Am               E
The world is shutting out for us
        Am
We were tense for sure
            E
But we was con-fi-dent...

E|-----------------------|
B|-9------------9--------|
G|----9--11--9-----11--9-|
D|-----------------------|
A|-----------------------|
E|-----------------------|

I won't try to control you
E|-----------------------|
B|-----------------------|
G|-11--8--9--8--11--9--8-|
D|-----------------------|
A|-----------------------|
E|-----------------------|

Friday nights have been lonely
E|-----------------------|
B|-9------------9--------|
G|----9--11--9-----11--9-|
D|-----------------------|
A|-----------------------|
E|-----------------------|

Take it slow but don't warn me
E|-----------------------|
B|-----------------------|
G|-11--8--9--8--11--9--8-|
D|-----------------------|
A|-----------------------|
E|-----------------------|

We could go and get fourties
E|---------------------------|
B|-9------------12--10--9----|
G|----9--11--9---------------|
D|---------------------------|
A|---------------------------|
E|---------------------------|

Then we'd go to some party
E|-----------------------|
B|-----------------------|
G|-11--8--9--8--11--9--8-|
D|-----------------------|
A|-----------------------|
E|-----------------------|

Oh really your folks are away now?
E|---------------------------|
B|-9------------12--10--9----|
G|----9--11--9---------------|
D|---------------------------|
A|---------------------------|
E|---------------------------|

Alright I'm coming   I'll be right there
E|-----------------------|
B|-----------------------|
G|-11--8--9--8--11--9--8-|
D|-----------------------|
A|-----------------------|
E|-----------------------|

 ( E  C#m  B )
E|--------------------------------------------------------------|
B|-12--9------9--12--12--9------9--12--9------9-----9-----------|
G|--------11----------------11------------11----9-9----11---9---|
D|--------------------------------------------------------------|
A|--------------------------------------------------------------|
E|--------------------------------------------------------------|

E|--------------------------------------------------------------|
B|-12--9------9--12--12--9------9--12--9------9-----9-----------|
G|--------11----------------11------------11----9-9----11---9---|
D|--------------------------------------------------------------|
A|--------------------------------------------------------------|
E|--------------------------------------------------------------|
reproducciones 2.063
Acordes para:
    Composição: Julian Casablancas Colaboración y revision:

    0 comentarios

    mostrar más comentarios

    ¿Conseguiste tocar?

    10 tocaron 0 aún no

    ¡Graba un vídeo tocando 12:51 y envianoslo!

    00:00 / 00:00
    outros vídeos desta música
    repetir qualidade Automático
    Outros vídeos desta música
    00:00 / 00:00
    Automático
    OK