Cifra Club

80s Comedown Machine

The Strokes

Tablatura: Principal (guitarra)
Tom: E
intro/verse 1:

guitar 1 verse 1 (palm-muted):
E|-83-383-373-373-383-383-373-373-351-151-173-373-351-151-173-373-3-| (x6)
B|---5---5---5---5---5---5---5---5---5---5---6---6---5---5---6---6--|
G|------------------------------------------------------------------|
D|------------------------------------------------------------------|
A|------------------------------------------------------------------|
E|------------------------------------------------------------------|

guitar 1 verse 1 variation (palm-muted):
E|-51-151-173-373-383-383-3-10---10---12---12---73-373-383-383-3-|.
B|---5---5---6---6---6---6----868--868--8-8--8-8--5---5---5---5--|.
G|---------------------------------------9----9------------------|
D|---------------------------------------------------------------|
A|---------------------------------------------------------------|
E|---------------------------------------------------------------|

guitar 2 verse 1 part 1 (palm-muted):
E|------------------------------------------------------------------|
B|------------------------------------------------------------------|
G|-----5555444400002222555577774444----5555444400002222555577774444-| (x2)
D|---------------------------------3333-----------------------------|
A|-3333-------------------------------------------------------------|
E|------------------------------------------------------------------|

guitar 2 verse 1 part 2 (palm-muted):
E|------------------------------------------------------------------|
B|------------------------------------------------------------------|
G|------------------------------------------------------------------|
D|---------------------------------33333333333333333333333333333333-| (x2)
A|-33333333333333333333333333333333---------------------------------|
E|------------------------------------------------------------------|

guitar 1 prechorus (palm-muted):
E|-12---12---12---12---12---12---12---12----|
B|---8-8--8-8--8-8--8-8--8-8--8-8--8-8--8-8-| (x1)
G|----9----9----9----9----9----9----9----9--|
D|------------------------------------------|
A|------------------------------------------|
E|------------------------------------------|

guitar 2 prechorus (palm-muted):
E|---------------------------------|
B|---------------------------------|
G|---------------------------------|
D|---------------------------------|
A|-33333333333333333333333333333333| (x1)
E|---------------------------------|

guitar 1 chorus (palm-muted):
E|---7--7-7--7--7-7--   ----8---8-8---8---8-8---|
B|--8--8----8--8----(x2)--10--10----10--10------|(x2) (repeat)
G|-7--7--7-7--7--7---   -9---9---9-9---9---9----|
D|----------------------------------------------|
A|----------------------------------------------|
E|----------------------------------------------|

guitar 2 chorus (palm-muted):
E|-3333333333333333------5555555555555555-----------|
B|-3333333333333333------5555555555555555-----------|
G|-4444444444444444------5555555555555555-----------|          (repeat)
D|-5555555555555555-(x2) 7777777777777777-----------|(x2)
A|--------------------------------------------------|
E|--------------------------------------------------|

guitar 1 bridge/prechorus part 1 (palm-muted):
E|-94-494-484-484-494-494-484-484-462-262-284-484-462-262-284-484-4-| (x1)
B|---6---6---6---6---6---6---6---6---6---6---7---7---6---6---7---7--|
G|------------------------------------------------------------------|
D|------------------------------------------------------------------|
A|------------------------------------------------------------------|
E|------------------------------------------------------------------|

guitar 1 bridge/prechorus part 2 (palm-muted):
E|-94-4-11-13-84-484-494-4-11-13-84-484-462-262-284-484-462-262-284-484-4-| (x1)
B|---6----9--9--6---6---6----9--9--6---6---6---6---7---7---6---6---7---7--|
G|------------------------------------------------------------------------|
D|------------------------------------------------------------------------|
A|------------------------------------------------------------------------|
E|------------------------------------------------------------------------|

guitar 2 bridge/prechorus (palm-muted):
E|-----------------------------------------------------------------|
B|-----------------------------------------------------------------|
G|-6---6---5---5---6---6---5---5---3---3---5---5---3---3---5---5---|
D|---6---6---6---6---6---6---6---6---4---4---6---6---4---4---6---6-| (x2)
A|-----------------------------------------------------------------|
E|-----------------------------------------------------------------|

guitar 1 chorus 3 (palm-muted):
E|---8--8-8--8--8-8--  -----9----9--9----9----9--9---|
B|--9--9----9--9---(x2)---11---11------11---11-------|(x2)(repeat)
G|-8--8--8-8--8--8--   -10---10---10-10---10---10----|
D|---------------------------------------------------|
A|---------------------------------------------------|
E|---------------------------------------------------|

guitar 2 chorus 3 (palm-muted):
E|-4444444444444444------6666666666666666--|
B|-4444444444444444------6666666666666666--|
G|-5555555555555555------6666666666666666--|
D|-6666666666666666-(x2) 8888888888888888--|(x2)(repeat 2x)
A|-----------------------------------------|
E|-----------------------------------------|

guitar 1 outro (palm-muted)(picked with more staccato):
E|--8-----8---------8-----------8--------|
B|-----9-----9-----------9---------------|
G|-8--------------8-------------------8~-|
D|---------------------------------------|
A|---------------------------------------|
E|---------------------------------------|

***************************************************************************
***************************************************************************

guitar 1 verse 1:
E|-8---8---7---7---8---8---7---7---5---5---7---7---5---5---7---7----|
B|--8-8-8-8-8-8-8-8-8-8-8-8-8-8-8-8-656-656-868-868-656-656-868-868-|
G|---9---9---9---9---9---9---9---9----------------------------------|
D|------------------------------------------------------------------|
A|------------------------------------------------------------------|
E|------------------------------------------------------------------|

guitar 1 verse 1 variation:
E|-5---5---7---7---8---8---10---10---12-----12---------------------|
B|--656-656-868-868-868-868--868--868--10-10--10-10----------------|
G|---------------------------------------9------9------------------|
D|-----------------------------------------------------------------|
A|-----------------------------------------------------------------|
E|-----------------------------------------------------------------|

guitar 1 bridge/prechorus part 1:
E|-9----9----8----8----9----9----8----8----6---6---8---8---6---6---8---8----|
B|--9--9-9--9-9--9-9--9-9--9-9--9-9--9-9--9-767-767-979-979-767-767-979-979-|
G|---10---10---10---10---10---10---10---10----------------------------------|
D|--------------------------------------------------------------------------|
A|--------------------------------------------------------------------------|
E|--------------------------------------------------------------------------|

guitar 1 bridge/prechorus part 2:
E|-9----11-13-8----8----9----11-13-8----8----6---6---8---8---6---6---8---8----|
B|--9--9--9--9-9--9-9--9-9--9--9--9-9--9-9--9-767-767-979-979-767-767-979-979-|
G|---10---------10---10---10---------10---10----------------------------------|
D|----------------------------------------------------------------------------|
A|----------------------------------------------------------------------------|
E|----------------------------------------------------------------------------|
reproducciones 200
Acordes para:
    Colaboración y revision:
    • Élison Duarte

    0 comentarios

    mostrar más comentarios

    ¿Conseguiste tocar?

    0 tocaron 0 aún no

    ¡Graba un vídeo tocando 80s Comedown Machine y envianoslo!

    00:00 / 00:00
    outros vídeos desta música
    repetir qualidade Automático
    Outros vídeos desta música
    00:00 / 00:00
    Automático
    OK