Cifra Club

A Minor 4-4

The Strokes

Tablatura: Principal (guitarra)
Tom: C
Here's the main riff of the song

E|------- ------- ------- -------------------|
B|-10----10----10---8-----10---10---10---8---|
G|-9-----9-----9----9-----9----9----9----9---|
D|-10----10----10---10----10---10---10---10--|
A|-------------------------------------------|
E|-------------------------------------------|

E|-------------------------------------------|
B|-15----15----15---15----15---15---15---15--|
G|-14----14----14---14----14---14---14---14--|
D|-15----15----15---15----15---15---15---15--|
A|-------------------------------------------|
E|-------------------------------------------|

E|--------------------9---9---9---9----------|
B|-9----9----9---9----9---9---9---9----------|
G|-9----9----9---9----9---9---9---9----------|
D|-9----9----9---9----9---9---9---9----------|
A|-------------------------------------------|
E|-------------------------------------------|


        A
Well on top of me you look this way

saying to me that I would say
Dm
every little creature that lives alone
E                                     Am
time gets enough to get him sit right down

Am
and now time's a reaching and I'm not there

and in the end and I am said/sad
Dm
all the little people, they're in your way
E                                     Am
and a something..... someone to bowl with
        Am
and I'm tired
        Am
but I'm older
       Dm
and I said that I was wrong
    Am
and I'm not going that way
    Am
see I ain't going that way
    Am
and I'm not going that way
    Am
and I'm not going that way

in a church wehn went in your in that fate
bring it down and a past in your visit
all the little poeple that run around
and I touch them someone that's underground

and hes always
from the corpses
and all a trying yaw yaw yaw (well that's what it sounds like)
finally a part of something new
I'll show them all back home

where's the child I overheard?
and I'm not going that way
i'm not going that way
I'm not going that way
cause I always go your side in
reproducciones 42
Acordes para:
    Composição: Julian Casablancas Colaboración y revision:
    • Élison Duarte

    0 comentarios

    mostrar más comentarios

    ¿Conseguiste tocar?

    0 tocaron 0 aún no

    ¡Graba un vídeo tocando A Minor 4-4 y envianoslo!

    00:00 / 00:00
    outros vídeos desta música
    repetir qualidade Automático
    Outros vídeos desta música
    00:00 / 00:00
    Automático
    OK