Cifra Club

Barely Legal Solo

The Strokes

Tablatura: Principal (guitarra)
Tom: C
CD release called "The Modern Age". The difference between this track and the album
songs, it is easy to play, and sounds great. Enjoy!


 e|---------------------------------------|
 B|---------------------------------------|
 G|---------------------------------------|
 D|---7---7---7---7---9----9----9----9----| x 2
 A|-8---8---8---8---8---10---10---10---10-|
 E|---------------------------------------|

 e|---------------------------------|       e|---|
 B|---------------------------------|       B|---|
 G|---------------------------------|       G|---|
 D|-7---7---7---7---5---5---5---5---| x 2 + D|-5-|
 A|---8---8---8---8---7---7---7---7-|       A|---|
 E|---------------------------------|       E|---|

 e|-------------------------------------------------------------|
 B|-/8-6-------6------------------------------------------------|
 G|------7-6/7---5-4-3------------------------------------------|
 D|--------------------3-5-10-8-10-8-10-8-5-10-8-10-8-10-8-3-5--|
 A|-------------------------------------------------------------|
 E|-------------------------------------------------------------|

 e|-------------------------------------------------------------|
 B|-------------------------------------------------------------|
 G|-------------------------------------------------------------|
 D|-10-8-10-8-10-8-3-5-10-8-10-8-10-8-3-5-10-8-10-8-10-8--------|
 A|-------------------------------------------------------------|
 E|-------------------------------------------------------------|

 e|-------------------------------------------------------------|
 B|---------------------------------12-12-----------------------|
 G|---3-5-3---12-12-11-11-9-9-11-11-------11-11-9-9-11-11-11-11-|
 D|-5-------5---------------------------------------------------|
 A|-------------------------------------------------------------|
 E|-------------------------------------------------------------|

 e|-------------------------------------------------------------|
 B|-10-10-8-8-7-7-8-8-8-8-10-10-10-9-9-8-8-7-7-6-6-5-5-4-4-3-3--|
 G|-------------------------------------------------------------|
 D|-------------------------------------------------------------|
 A|-------------------------------------------------------------|
 E|-------------------------------------------------------------|
reproducciones 202
Acordes para:

    0 comentarios

    mostrar más comentarios

    ¿Conseguiste tocar?

    0 tocaron 0 aún no

    ¡Graba un vídeo tocando Barely Legal Solo y envianoslo!

    00:00 / 00:00
    outros vídeos desta música
    repetir qualidade Automático
    Outros vídeos desta música
    00:00 / 00:00
    Automático
    OK