Cifra Club

Call Me Back

The Strokes

Tablatura: Principal (guitarra)
Tom: F# (con acordes en la forma de D) Capo en 4ª casa
Intro:
      Bm              E                A             F#m
E|------------------------------------------------------------------|
B|---3-3----3---1----3--3---3--3--1---3--3---3--1---3--3---3-3-3-1--|
G|---3---3--3---3----3--3---3--3--3---3--3---3--3---3--3---3-3-3-3--|
D|-------------------2----2-----2-----3----3--------0----0----------|
A|------------------------------------------------------------------|
E|------------------------------------------------------------------|

     Bm              E                A
E|----------------------------------------------------|
B|---3-3----3---1----3--3---3--3--1---3--3---3--1--1--|
G|---3---3--3---3----3--3---3--3--3---3--3---3--3--2--|
D|-------------------2----2--2--------3----3-------0--|
A|----------------------------------------------------|
E|----------------------------------------------------|

      Bm              E                   A                F#m
E|-------------------------------------------------------------------------|
B|--3--3----3---1----3---3---3---3---1---3---3---3---1----3--3---3-3-3-1---|
G|o-3----3--3---3----3---3---3---3---3---3---3---3---3----3--3---3-3-3-3---|
D|o-------------------2-----2---2---------3-----3----------0----0----------|
A|-------------------------------------------------------------------------|
E|-------------------------------------------------------------------------|
 1. Wait time is the worst,              I can hardly     sit
 2. Wait time is to  blame             thought fame was a trip
     Bm              E                   A                F#m
E|------------------------------------------------------------------------|
B|--3--3----3---1----3---3---3---3---1---3---3---3---1----3--3---3-3-3-1--|
G|--3----3--3---3----3---3---3---3---3---3---3---3---3----3--3---3-3-3-3--|
D|-------------------2-----2---2---------3-----3----------0----0----------|
A|------------------------------------------------------------------------|
E|------------------------------------------------------------------------|
     No one has the  time               Someone is always late chch
     We all have the time               Someone is always feared
      Bm              E                   A                F#m
E|------------------------------------------------------------------------|
B|--3--3----3---1----3---3---3---3---1---3---3---3---1----3--3---3-3-3-1--|
G|--3----3--3---3----3---3---3---3---3---3---3---3---3----3--3---3-3-3-3--|
D|-------------------2-----2---2---------3-----3----------0----0----------|
A|------------------------------------------------------------------------|
E|------------------------------------------------------------------------|
 1. I   look   for   you             And you look for     me  who oh oh
 2. I   look   for   you             And you look         away    oh oh
      Bm              E                A
E|-----------------------------------------------------------|
B|---3--3----3--1----3--3---3---3--1--1--1--1---1--1---1--1--|
G|---3----3--3--3----3--3---3---3--3--2--2--2---2--2---2--2--|
D|-------------------2----2---2---------------0------0-------|
A|-----------------------------------------------------------|
E|-----------------------------------------------------------|
    oh       oh oh oh              oh oh
   G   D        A          G        D         A                 G
E|--1---1--------1---5--3---1--------1---------1------5-----3----1-|
B|--1------------1---1--1---1------------------1------1-----1----1-|
G|------3----------------------------3-----------------------------|
D|-----------------------------------------------------------------|
A|-----------------------------------------------------------------|
E|-----------------------------------------------------------------|
 1. I don't know why I came down  I  hold your phone, don't wake up
 2. ____________________________  _________________________________
     A
E|-----1------1------5--3---1------|--1---1---|-1---1---1--1---1---1--|
B|------------1------1--1---1------|------1---|---1---1---------------|
G|-----3---------------------------|--3-------|--------------3---3----|
D|---------------------------------|----------|-----------------------|
A|---------------------------------|----------|-----------------------|
E|---------------------------------|----------|-----------------------|
                                    1        2
 1. I  hear a voice, in the ground…
 2. ___________________________________________
E|-1-1--1--1--1--1--1--1--1--1--1--1--1-/------|
B|-1-1--1--1--1--1--1--1--1--1--1--1--1-/------|
G|---2--0--2--0--2--0--2--0--2--0--2--0-/------|
D|---------------------------------------------|
A|---------------------------------------------|
E|---------------------------------------------|

    Gm
E|--6----6----6---5--6--8----6----6----6----5----6---8------|
B|--6----6----6---6--6--6----6----6----6----6----6---6------|
G|----------------------------------------------------------|
D|----------------------------------------------------------|
A|----------------------------------------------------------|
E|----------------------------------------------------------|
 1. Tell me, don't tell me, The hard part is telling me
 2. Waiting   up   is    so      much      fun      to
    eighteen      movies      make  out    party
    Dm                                          D             D
E|--6---6---6--5---5---5--|--6---6---6--5---5---5---||-6-6-5-5-5--|
B|--6---6---6--6---6---6--|--6---6---6--6---6---6---||-6-6-6-6----|
G|------------------------|------------------------o||------------|
D|------------------------|------------------------o||---------0--|
A|------------------------|-------------------------||------------|
E|------------------------|-------------------------||------------|
1. Something that you are not   likely to telling
2.   do      oooo,
  yeah             uuuu  ____________________________uu
reproducciones 1.902
Acordes para:
    Composição: The Strokes Colaboración y revision:
    • Élison Duarte

    0 comentarios

    mostrar más comentarios

    ¿Conseguiste tocar?

    1 tocaron 0 aún no

    ¡Graba un vídeo tocando Call Me Back y envianoslo!

    00:00 / 00:00
    outros vídeos desta música
    repetir qualidade Automático
    Outros vídeos desta música
    00:00 / 00:00
    Automático
    OK