Cifra Club

Gratisfaction

The Strokes

Tablatura: Principal (guitarra)
Tom: C
Verso 1:
E|--8---8---x--7--7--x--5--5--x--3--3--------------|
B|--10--10--x--8--8--x--6--6--x--5--5///12--12--x--|
G|--10--10--x--9--9--x--7--7--x--5--5///12--12--x--|
D|--10--10--x--9--9--x--7--7--x--5--5///12--12--x--|
A|--8---8---x--7--7--x--5--5--x--3--3///10--10--x--|
E|-------------------------------------------------|

        F         Em       Dm       C       G
E|--------------------------------\|
B|--12-12-12-x-12-12-12-x-12-12-12\|
G|--12-12-12-x-12-12-12-x-12-12-12\|
D|--12-12-12-x-12-12-12-x-10-10-10\|
A|--10-10-10-x-10-10-10-x-12-12-12\|
E|----------------------------------|

      G
e|\3--3--x--5--5--x--7--7///12--12--x--8---8--x--|
B|\5--5--x--4--4--x--8--8///13--13--x--10--10-x--|
G|\5--5--x--6--6--x--9--9///14--14--x--10--10-x--|
D|\5--5--x--6--6--x--9--9///14--14--x--10--10-x--|
A|\3--3--x--5--5--x--7--7///12--12--x--8---8--x--|
E|------------------------------------------------|

     C       Dm       Em      Am         F
E|--8--8--8--x-8--8--8--x--5--------|
B|--10-10-10-x-10-10-10-x--6---12---|
G|--10-10-10-x-10-10-10-x--7---12---|
D|--10-10-10-x-10-10-10-x--7---12---|
A|--8--8--8--x-8--8--8--x--5---10---|
E|----------------------------------|
    F                      Dm   G

Verso 2:
E|--8---8---x--7--7--x--5--5--x--3--3///-----------|
B|--10--10--x--8--8--x--6--6--x--5--5///12--12--x--|
G|--10--10--x--9--9--x--7--7--x--5--5///12--12--x--|
D|--10--10--x--9--9--x--7--7--x--5--5///12--12--x--|
A|--8---8---x--7--7--x--5--5--x--3--3///10--10--x--|
E|-------------------------------------------------|

      F         Em       Dm        C       G
E|------------------------------\|
B|--12-13-12-x-12--12-x-12-13-12\|
G|--12-12-12-x-12--12-x-12-12-12\|
D|--12-12-12-x-12--12-x-12-12-12\|
A|--12-10-10-x-10--10-x-10-10-10\|
E|--------------------------------|

      G Gsus4 G     G     G Gsus4 G
e|\3--3--x--5--5--x--7--7///12--12--x--8---8--x--|
B|\5--5--x--4--4--x--8--8///13--13--x--10--10-x--|
G|\5--5--x--6--6--x--9--9///14--14--x--10--10-x--|
D|\5--5--x--6--6--x--9--9///14--14--x--10--10-x--|
A|\3--3--x--5--5--x--7--7///12--12--x--8---8--x--|
E|------------------------------------------------|

      C        Dm       Em      Am         F
E|--8--8--8--x-8--8--8--x--5--------|
B|--10-10-10-x-10-10-10-x--6---12---|
G|--10-10-10-x-10-10-10-x--7---12---|
D|--10-10-10-x-10-10-10-x--7---12---|
A|--8--8--8--x-8--8--8--x--5---10---|
E|----------------------------------|
      F                      Dm   G
E|--8---8---x--7--7--x--5--5--x--3--3--------------|
B|--10--10--x--8--8--x--6--6--x--5--5///12--12--x--|
G|--10--10--x--9--9--x--7--7--x--5--5///12--12--x--|
D|--10--10--x--9--9--x--7--7--x--5--5///12--12--x--|
A|--8---8---x--7--7--x--5--5--x--3--3///10--10--x--|
E|-------------------------------------------------|

        F          Em      Dm       C        G
E|----------------------------|
B|--12--12-x-12--12-x-12--12-x|
G|--12--12-x-12--12-x-12--12-x|
D|--12--12-x-12--12-x-12--12-x|
A|--10--10-x-10--10-x-10--10-x|
E|----------------------------|
    G

Refrão:
E|--8-----5----------8-----3~-3-3--3-3--3-3--|
B|--10----6----12----10----5~-5-5--5-5--5-5//|
G|--10----7----12----10----5~-5-5--5-5--5-5//|
D|--10----7----12----10----5~-5-5--5-5--5-5//|
A|--8-----5----10----8-----3~-3-3--3-3--3-3//|
E|-------------------------------------------|

      F     Dm   G     F     C
E|--------14---12----------5~-5-5--5-5--5-5--|
B|//17----15---13----12----6~-6-6--6-6--6-6--|
G|//17----16---14----12----7~-7-7--7-7--7-7--|
D|//17----16---14----12----7~-7-7--7-7--7-7--|
A|//15----14---12----10----5~-5-5--5-5--5-5--|
E|-------------------------------------------|

      C     Bm   Am    G     Dm
E|--8-----5----3------------------------------------|
B|--10----6----5-----13----12~-12-12--12-12--12-12--|
G|--10----7----5-----12----12~-12-12--12-12--12-12--|
D|--10----7----5-----12----12~-12-12--12-12--12-12--|
A|--8-----5----3-----10----10~-10-10--10-10--10-10--|
E|--------------------------------------------------|

      F     Dm   C    Gsus4  G
E|--3----7--------5-5-5---------5----------|
B|--5----8--------6-5-6---------5----------|
G|--5----9--------7-5-7---------5----------|
D|--5----9--------7-5-7---------7----------|
A|-----------------------------------------|
E|-----------------------------------------|


2 guitarra

Part A:
                         (second lead guitar)
--8---7---5---3---3-----------------------------|
-10---8---6---5---3----------------8------------|
-10---9---7---5---4------------7-9--------------|
--------------------------7-9-------------------|
------------------------------------------------|
------------------------------------------------|

Part B:                       / = slide      h - hammer on
                            (second lead guitar)
--3---5---7----8---5--------10/8---10/8---8-8h10h12-8h10h12-13-12--|
--5---6---8---10---6--------12/10--12/10---------------------------|
--5---5---9---10---5-----------------------------------------------|
-------------------------------------------------------------------|
-------------------------------------------------------------------|
-------------------------------------------------------------------|

Part C:                p = pull off

--8---7---5---3---3----5p3-5p3----3--3--5p3-5p3-|
-10---8---6---5---3----3---3------3--3--3---3---|
-10---9---7---5---4----4---4------4--4--4---4---|
------------------------------------------------|
------------------------------------------------|
------------------------------------------------|

Then Part B again.

Part D:
   (first lead)
   --8---7---5---3---3-----------------------------|
   -10---8---6---5---3-----------------------------|
   -10---9---7---5---4-----------------------------|
   ------------------------------------------------|
   ------------------------------------------------|
   ------------------------------------------------|

   (simultaneous second lead)
   -8----7---5---3--/7----7------------------------|
   ------------------------------------------------|
   ------------------------------------------------|
   ------------------------------------------------|
   ------------------------------------------------|
   ------------------------------------------------|

Chorus consists of four parts:

   First Three Parts of Chorus
         (I)              (II)           (III)
   -8--7--5--3-7-----7--5--3--3-5------8--7--7-----|
   10--8--6--5-8-----8--6--5--3-6-----10--8--8-----|
   10--9--7--5-7-----9--7--5--4-5-----10--9--7-----|
   ------------------------------------------------|
   ------------------------------------------------|
   ------------------------------------------------|

   Fourth Part

   -7--5--3----------------------------------------|
   -8--6--5----------------------------------------|
   -9--7--5----------------------------------------|
   ------------------------------------------------|
   ------------------------------------------------|
   ------------------------------------------------|

Then play Part A again.

Part E
                            (second lead guitar)
--3---5---7----8---5--------10/8---10/8-------10/8---10/8----|
--5---6---8---10---6--------12/10--12/10------12/10--12/10---|
--5---5---9---10---5-----------------------------------------|
-------------------------------------------------------------|
-------------------------------------------------------------|
-------------------------------------------------------------|

Part F

--8---7---5---3---3-3---3-3-5p3-5p3-------------|
-10---8---6---5---3-3---3-3-3---3---------------|
-10---9---7---5---4-4---4-4-4---4---------------|
------------------------------------------------|
------------------------------------------------|
------------------------------------------------|

Then play Part B again.

Then play Part A again.

Then play the Chorus.

Solo

----12----8----12----8----12----8-----12--------|
-10---10----10---10----10----10---10-----10-----|
------------------------------------------------|
------------------------------------------------|
------------------------------------------------|
------------------------------------------------|

-12-12-12/10-10-10-10/8-------------------------|
-13-13-13/12-12-12-12/10------------------------|
------------------------------------------------|
------------------------------------------------|
------------------------------------------------|
------------------------------------------------|

-12-12-12/10-10-10-10/8---8--8--8/7-7-5---------|
-13-13-13/12-12-12-12/10-10-10-10/8-8-7---------|
------------------------------------------------|
------------------------------------------------|
------------------------------------------------|
------------------------------------------------|

-5-5-5/3-3-3-3/5-5----5-5-5/3-3-3-3/5-5-5-5/8--8--7-|
-7-7-7/5-5-5-5/7-7----7-7-7/5-5-5-5/7-7-7-7/10-10-8-|
----------------------------------------------------|
----------------------------------------------------|
----------------------------------------------------|
----------------------------------------------------|

-12-12-12-10-10-13-12-------------------------------|
-13-13-13-13-13-13-13-------------------------------|
----------------------------------------------------|
----------------------------------------------------|
----------------------------------------------------|
----------------------------------------------------|

-7--7--7--7--7--7--7--7--7--7-----------------------|
-8--8--8--8--8--8--8--8--8--8-----------------------|
-9--9--9--9--9--9--9--9--9--9-----------------------|
----------------------------------------------------|
----------------------------------------------------|
----------------------------------------------------|

Then play Part A again (without the second lead riff).

Then play the Chorus.

Then play with tremolo picking:

-12-12-12-12-12-12-15-15-15-15-15-15-17-17-17-17-17-17-|
-------------------------------------------------------|
-------------------------------------------------------|
-------------------------------------------------------|
-------------------------------------------------------|
-------------------------------------------------------|

Then play one more Chorus, but this time play the first three parts as normal, and end
with this fourth part:

-12--10---8-----------------------------------------------|
-13--11--10-----------------------------------------------|
-12--10---9-----------------------------------------------|
----------------------------------------------------------|
----------------------------------------------------------|
----------------------------------------------------------|
reproducciones 500
Acordes para:
    Composição: The Strokes Colaboración y revision:
    • Lucas Idalino
    • jose vinicios

    0 comentarios

    mostrar más comentarios

    ¿Conseguiste tocar?

    0 tocaron 0 aún no

    ¡Graba un vídeo tocando Gratisfaction y envianoslo!

    00:00 / 00:00
    outros vídeos desta música
    repetir qualidade Automático
    Outros vídeos desta música
    00:00 / 00:00
    Automático
    OK