Cifra Club

Happy Endings

The Strokes

Tablatura: Principal (guitarra)
Tom: D
Intro

Primeira Guitarra:

      Em       A         D     G
E|-----------------------------------------------------------------------------|
B|-----------------------------------------------------------------------------|
G|-----------------------------------------------------------------------------|
D|-5---5---7---7--7-----4--4--5--5--5------------------------------------------|
A|---7---7---7--7--7-----5--5--5--5--5-----------------------------------------|
E|-----------------------------------------------------------------------------|

      Em       A         D     G
E|-----------------------------------------------------------------------------|
B|-----------------------------------------------------------------------------|
G|-----------------------------------------------------------------------------|
D|--5---5---7---7--7-----4--4--5--5--5-----------------------------------------|
A|---7---7---7--7--7------5--5--5--5--5----------------------------------------|
E|-----------------------------------------------------------------------------|

      Em       A         D     Bm
E|-----------------------------------------------------------------------------|
B|-----------------------------------------------------------------------------|
G|-----------------------------------------------------------------------------|
D|--5---5---7---7--7-----4--4--4--4--4-----------------------------------------|
A|---7---7---7--7--7------5--5--2--2--2----------------------------------------|
E|-----------------------------------------------------------------------------|

       G         A         D          Bm
E|-----------------------------------------------------------------------------|
B|-----------------------------------------------------------------------------|
G|---4---4----4/6---6---6---6---6---6/7---7---7--------------------------------|
D|-----5---5------7---7---7---7---7-----9---9---9------------------------------|
A|-----------------------------------------------------------------------------|
E|-----------------------------------------------------------------------------|

Segunda Guitarra:

      Em5                D5
E|-----------------------------------------------------------------------------|
B|-----------------------------------------------------------------------------|
G|----9------------------7-----------------------------------------------------|
D|----9------------------7-----------------------------------------------------| (3x)
A|----7------------------5-----------------------------------------------------|
E|-----------------------------------------------------------------------------|


       Bm5
E|-----------------------------------------------------------------------------|
B|-----------------------------------------------------------------------------|
G|-----------------------------------------------------------------------------|
D|---4---4-------------------------------------4-5-----------------------------|
A|---4---4--------7-5-4-7-5-4-----------4-5-7----------------------------------|
E|---2---2--------------------7-5-3-5-7----------------------------------------|
    


Say it all...


Primeira Guitarra(Palm Mute):


E|--------14-14-14-12-14-12-------------------12-12-12-10-12-10---------------|
B|--12-12-------------------10-10------10-10--------------------8-8-----------|
G|----------------------------------------------------------------------------| (3x)
D|----------------------------------------------------------------------------|
A|----------------------------------------------------------------------------|
E|----------------------------------------------------------------------------|
    
E|--------14-14-14-12-14-12----------------12-12-12-10-12-10-----10-10-7-10-7-|
B|--12-12-------------------10-10----10-10--------------------8-8-------------|
G|----------------------------------------------------------------------------| 
D|----------------------------------------------------------------------------|
A|----------------------------------------------------------------------------|
E|----------------------------------------------------------------------------|


Segunda Guitarra

     Em                D
E|-----------------------------------------------------------------------------|
B|-----------------------------------------------------------------------------|
G|-----------------------------------------------------------------------------|
D|-2222222222222222----0000000000000000----------------------------------------| (2x)
A|-----------------------------------------------------------------------------|
E|-----------------------------------------------------------------------------|

         
E|-----------------------------------------------------------------------------|
B|-----------------------------------------------------------------------------|
G|-----------------------------------------------------------------------------|
D|-2222222222222222----0000000000000000----------------------------------------| 
A|-----------------------------------------22222222----------------------------|
E|-----------------------------------------------------------------------------|

     G         A         D          Bm
E|-----------------------------------------------------------------------------|
B|-----------------------------------------------------------------------------|
G|---4---4----4/6---6---6---6---6---6/7---7---7--------------------------------|
D|-----5---5------7---7---7---7---7-----9---9---9------------------------------|
A|-----------------------------------------------------------------------------|
E|-----------------------------------------------------------------------------|


Chorus: 

Primeira guitarra:


E|--12-12----1212----12-------------9-9----10-10----1010----10-----------7-7---|
B|--------12------12----12----10-10--------------10------10----10----8-8-------|
G|-----------------------------------------------------------------------------| (2x)
D|-----------------------------------------------------------------------------|
A|-----------------------------------------------------------------------------|
E|-----------------------------------------------------------------------------|
    
E|--12-12----1212----12-------------9-9----10-10----1010----10-----------7-7---|
B|--------12------12----12----10-10--------------10------10----10----7-7-------|
G|-----------------------------------------------------------------------------| 
D|-----------------------------------------------------------------------------|
A|-----------------------------------------------------------------------------|
E|-----------------------------------------------------------------------------|

E|--7---7---7/9----9----9----9----9----10----10----10--------------------------|
B|----8---8-----10---10---10---10---10----10----10----10-----------------------|
G|-----------------------------------------------------------------------------| 
D|-----------------------------------------------------------------------------|
A|-----------------------------------------------------------------------------|
E|-----------------------------------------------------------------------------|


Segunda Guitarra:

E|-----------------------------------------------------------------------------|
B|----8---8---10---10---10---7---7---8---8---8---------------------------------|
G|------9---9----9----9----9---7---7---7---7---7-------------------------------| (2x)
D|-----------------------------------------------------------------------------|
A|-----------------------------------------------------------------------------|
E|-----------------------------------------------------------------------------|

E|-----------------------------------------------------------------------------|
B|----8---8---10---10---10---7---7---3---3---3---------------------------------|
G|------9---9----9----9----9---7---7---4---4---4-------------------------------| 
D|-----------------------------------------------------------------------------|
A|-----------------------------------------------------------------------------|
E|-----------------------------------------------------------------------------|


E|-----------------------------------------------------------------------------|
B|-----------------------------------------------------------------------------|
G|---4---4----4/6---6---6---6---6---6/7---7---7--------------------------------|
D|-----5---5------7---7---7---7---7-----9---9---9------------------------------|
A|-----------------------------------------------------------------------------|
E|-----------------------------------------------------------------------------|



Repete a partir de Say it all... até o Chorus



Bm               G   D
Feel the dizzy...
Em               A   G
In the running show
Bm               G   D
All I want to see
Em               A   G
All I want to know
Bm                     G
Watch you as you stay
Em                     A
Faces at your door
Bm                     G
Waitin for your piece
Em             A
? and train your pleeds

Bridge

Primeira Guitarra:

E|-----------------------------------------------------------------------------|
B|-----------------------------------------------------------------------------|
G|-----------------------------------------------------------------------------|
D|-5---5---7---7--7-----4--4--5--5--5------------------------------------------| (2x)
A|---7---7---7--7--7-----5--5--5--5--5-----------------------------------------|
E|-----------------------------------------------------------------------------|

Segunda Guitarra:

E|-----------------------------------------------------------------------------|
B|-----------------------------------------------------------------------------|
G|-----------------------------------------------------------------------------|
D|-2222222222222222----0000000000000000----------------------------------------| (2x)
A|-----------------------------------------------------------------------------|
E|-----------------------------------------------------------------------------|


Chorus


Em                     A            D        G
Cause I dont wanna see everybody get together
Em                   A
Leave these dreams alone
D                       G             Em             A
You dont wanna have to tell me that I wanted you go
D                G
Everybody needs a shadow, oh
reproducciones 196
Acordes para:
    Colaboración y revision:
    • Bruno
    • João Feijó

    0 comentarios

    mostrar más comentarios

    ¿Conseguiste tocar?

    0 tocaron 0 aún no

    ¡Graba un vídeo tocando Happy Endings y envianoslo!

    00:00 / 00:00
    outros vídeos desta música
    repetir qualidade Automático
    Outros vídeos desta música
    00:00 / 00:00
    Automático
    OK