Cifra Club

Hard To Explain

The Strokes

Tablatura: Principal (guitarra)
Tom: G
(intro)

(guitar 1 - base simultaneamente com a guitarra 2)
(guitar 2 - riff abaixo)

    G5      F5      G5
E|---------------------------------------------------
B|-88888888877777777788888888------------------------
G|---------------------------------------------------
D|---------------------------------------------------
A|---------------------------------------------------
E|---------------------------------------------------

    A5          D5                        C5        A5
E|-------------------------------------------------------------------------
B|-------------------------------------------------------------------------
G|-5-7-7/9-----7-5-9-5-11-7-9-5-7-5-9-5-11-9-------------------------------
D|---------7-5--------------------------------5-5-7-7-7/9-7--5-5-7-7-7/9-7-
A|-------------------------------------------------------------------------
E|-------------------------------------------------------------------------

    G5      B5      Am
E|---------------------------------------------------
B|---------------------------------------------------
G|---------------------------------------------------
D|---------------------------------------------------
A|------------2222-----------------------------------
E|-33333333333----3333333333335555-------------------

(verso 1 - guitar 1 e guitar 2 fazem a mesma coisa que na intro)

Was an honest man
Asked me for the phone
Tried to take control
Oh, I don't see it that way
I don't see it that way

(verso 2)

    G5      F5      G5
E|---------------------------------------------------
B|-88888888877777777788888888------------------------
G|---------------------------------------------------
D|---------------------------------------------------
A|---------------------------------------------------
E|---------------------------------------------------

     A5          D5                        C5        A5
E|-------------------------------------------------------------------------
B|-------------------------------------------------------------------------
G|-5-7-7/9-----7-5-9-5-11-7-9-5-7-5-9-5-11-9-------------------------------
D|---------7-5--------------------------------5-5-7-7-7/9-7--5-5-7-7-7/9-7-
A|-------------------------------------------------------------------------
E|-------------------------------------------------------------------------


    G5      B5      Am
E|---------------------------------------------------
B|---------------------------------------------------
G|---------------------------------------------------
D|---------------------------------------------------
A|------------2222-----------------------------------
E|-33333333333----3333333333335555-------------------

Oh, we shared some ideas
All obsessed with fame
Says we're all the same
Oh, I don't see it that way
I don't see it that way

(ponte)
 G5           E5     B5
Raised in Carolina
             A5
"I'm not like that"
 G5             E5        B5
Trying to remind her
          A5
When we go back

(refrão)
E|---------------------------------------------------
B|---------------------------------------------------
G|-4-7-4-5-4-4-7-4-5-4---4---------4-----------------
D|---------------------5---5-7-5-5---7-5-------------
A|---------------------------------------------------
E|---------------------------------------------------

(4x e no final da quarta vez termine uma nota antes)

I missed the last bus, I'll take the next train
I try but you see, it's hard to explain
I say the right things, but act the wrong way
I like it right here, but I cannot stay
I watch the TV; forget what I'm told
Well, I am too young, and they are too old
The joke is on you, this place is a zoo
"You're right it's true"

(intro 1x)

(verso 3 - igual o verso 2)

Says he can't decide
I shake my head to say
Everything's just great
Oh, I just can't remember
I just can't remember

(ponte)
 G5           E5     B5
Raised in Carolina
             A5
"I'm not like that"
 G5             E5        B5
Trying to remind her
          A5
When we go back

(refrão)
I say the right things but act the wrong way
I like it right here but I cannot stay
I watch the TV; forget what I'm told
Well, I am too young, and they are too old
Oh, man, can't you see I'm nervous, so please
Pretend to be nice, so I can be mean
I miss the last bus, we take the next train
I try but you see, it's hard to explain
reproducciones 4.403
Acordes para:
    Composição: Julian Casablancas Colaboración y revision:
    • Igor Ramon
    • Mathaus Oliveira
    • marcos andre

    0 comentarios

    mostrar más comentarios

    ¿Conseguiste tocar?

    10 tocaron 1 aún no

    ¡Graba un vídeo tocando Hard To Explain y envianoslo!

    00:00 / 00:00
    outros vídeos desta música
    repetir qualidade Automático
    Outros vídeos desta música
    00:00 / 00:00
    Automático
    OK