Cifra Club

Heart In a Cage

The Strokes

Tablatura: Principal (guitarra)
Tom: C#
Intro 
 
Guitar 1 
|------| 
|-5\---| 
|-5\---| 
|------| 
|------| 
|------| 
 
 
Intro A 
 
 Guitar 1 
||---16--16--15--15--15--15-|---16--16--15--15--15--15-|---16--16--15--15--15--15- 
||-18--18--18--16--16--16---|-18--18--18--16--16--16---|-18--18--18--16--16--16--- 
||--------------------------|--------------------------|-------------------------- 
||--------------------------|--------------------------|-------------------------- 
||--------------------------|--------------------------|-------------------------- 
||--------------------------|--------------------------|-------------------------- 

 |---13--13--11--11--11--11-||
 |-15--15--15--13--13--13---||
 |--------------------------||
 |--------------------------||
 |--------------------------||
 |--------------------------||


 Guitar 2 
||--------------------------|--------------------------|-------------------------- 
||--------------------------|--------------------------|-------------------------- 
||--------------------------|--------------------------|-------------------------- 
||----------5----5-----5----|----5-----5----5----------|-----------5----5-----5--- 
||-3--3--6--3----3--6--3----|----3--6--3----3--6-------|--3--3--6--3----3--6--3--- 
||--------------------------|--------------------------|-------------------------- 
 
 |--------------------------||
 |--------------------------||
 |--------------------------||
 |----5-----5----5----------||
 |----3--6--3----3--6-------||
 |--------------------------||
 
 
Intro B 
 
||---16--16--15--15--15--15-|---16--16--15--15--15--15-|---16--16--15--15--15--15- 
||-18--18--18--16--16--16---|-18--18--18--16--16--16---|-18--18--18--16--16--16--- 
||--------------------------|--------------------------|-------------------------- 
||--------------------------|--------------------------|-------------------------- 
||--------------------------|--------------------------|-------------------------- 
||--------------------------|--------------------------|-------------------------- 

 |---13--13--11--11--11--11-||
 |-15--15--15--13--13--13---||
 |--------------------------||
 |--------------------------||
 |--------------------------||
 |--------------------------||


||--------------------------|--------------------------|-------------------------- 
||--------------------------|--------------------------|-------------------------- 
||----------5----5-----5----|----5-----5----5----------|-------------------------- 
||-3--3--6--3----3--6--3----|----3--6--3----3--6-------|----------5----5-----5---- 
||--------------------------|--------------------------|-3--3--6--3----3--6--3---- 
||--------------------------|--------------------------|-------------------------- 

 |--------------------------||
 |--------------------------||
 |--------------------------||
 |----5-----5----5----------||
 |----3--6--3----3--6-------||
 |--------------------------||

 
 
Guitar 1 
(Hold for 4 measures) 
||--------------------------|| 
||-13-----------------------|| 
||-12-----------------------|| 
||--------------------------|| 
||--------------------------|| 
||--------------------------|| 
(Guitar 2 - Same as Intro A) 
 
 
 
Verse 
 
||-3--3-3--3-3--3-3--3|-3--3-3--3-3--3-3--3|-4--4-4--4-4--4-4--4|--------------------|| 
||-4--4-4--4-4--4-4--4|-4--4-4--4-4--4-4--4|-4--4-4--4-4--4-4--4|-8--8-8--8-8--8-8--8|| 
||-5--5-5--5-5--5-5--5|-5--5-5--5-5--5-5--5|-5--5-5--5-5--5-5--5|-8--8-8--8-8--8-8--8|| 
||-5--5-5--5-5--5-5--5|-5--5-5--5-5--5-5--5|-6--6-6--6-6--6-6--6|-8--8-8--8-8--8-8--8|| 
||--------------------|--------------------|--------------------|--------------------|| 
||--------------------|--------------------|--------------------|--------------------|| 
|| 
|| 
||--------------------|--------------------|--------------------|---------------------|| 
||--------------------|--------------------|--------------------|---------------------|| 
||--------------------|--------------------|--------------------|---------------------|| 
||--------------------|--------------------|--------------------|---------------------|| 
||-3--3-3--3-3--3-3--3|-3--3-3--3-3--3-3--3|--------------------|-6--6-6--6-6--6-6--6-|| 
||--------------------|--------------------|-4--4-4--4-4--4-4--4|---------------------|| 
 
 
Interlude 
(played right after the riff from the intro) 
||18-16-15-16-15----15-----|--------------------------|-------------------------- 
||----------------18--18-16|-18-16-15-16-15-13-15-13--|-13----------------------- 
||-------------------------|------------------------15|---15-13-15-13-12-13-12--- 
||-------------------------|--------------------------|-----------------------15- 
||-------------------------|--------------------------|-------------------------- 
||-------------------------|--------------------------|-------------------------- 

 |---------------------------||
 |---------------------------||
 |-12------------------------||
 |---15-13-15-13-12-13-12----||
 |------------------------13-||
 |---------------------------||

 
||--------------------------|--------------------------|-------------------------- 
||--------------------------|--------------------------|-------------------------- 
||--------------------------|--------------------------|-------------------------- 
||----------5----5-----5----|----5-----5----5----------|-----------5----5-----5--- 
||-3--3--6--3----3--6--3----|----3--6--3----3--6-------|--3--3--6--3----3--6--3--- 
||--------------------------|--------------------------|-------------------------- 
 
 |--------------------------||
 |--------------------------||
 |--------------------------||
 |----5-----5----5----------||
 |----3--6--3----3--6-------||
 |--------------------------||
 
 
|--------------------------------|| 
|-----12-12-12-12-12-12-12-12-12-|| 
|-----11-11-11-11-11-11-11-11-11-|| 
|--------------------------------|| 
|-15/----------------------------|| 
|--------------------------------|| 
| 
| 
|--------------------------------|| 
|--------------------------------|| 
|--------------------------------|| 
|--------------------------------|| 
|-15/-3--3--3--3--3--3--3--3--3--|| 
|--------------------------------|| 
 
 
 
Bridge 
 
 
||--3--------3-------|--5--------5-------|--6--------6-------|-5--------5--------| 
||-----4--------4----|-----4--------4----|-----8--------8----|----8--------8-----| 
||--------5--------5-|--------5--------5-|--------7--------7-|-------7--------7--| 
||-------------------|-------------------|-------------------|-------------------| 
||-------------------|-------------------|-------------------|-------------------| 
||-------------------|-------------------|-------------------|-------------------| 
|| 
|| 
||-------------------|-------------------|-------------------|-------------------| 
||-------------------|-------------------|-------------------|-------------------| 
||-------------------|-------------------|-------------------|-------------------| 
||-------------------|-------------------|-------------------|-------------------| 
||-8--8--888---8--8--|-5--5--555---5--5--|-6--6--666---6--6--|-5--5--555---5--5--| 
||-------------------|-------------------|-------------------|-------------------| 
 
 
 
|--3--------3-------|--5--------5-------|--6--------6-------|-5--------5--------| 
|-----4--------4----|-----4--------4----|-----8--------8----|----8--------8-----| 
|--------5--------5-|--------5--------5-|--------7--------7-|-------7--------7--| 
|-------------------|-------------------|-------------------|-------------------| 
|-------------------|-------------------|-------------------|-------------------| 
|-------------------|-------------------|-------------------|-------------------| 
| 
| 
|-------------------|-------------------|-------------------|-------------------| 
|-------------------|-------------------|-------------------|-------------------| 
|-------------------|-------------------|-------------------|-------------------| 
|-------------------|-------------------|-------------------|-------------------| 
|-8--8--888---8--8--|-5--5--555---5--5--|-6--6--666---6--6--|-10-10-101010-10-10| 
|-------------------|-------------------|-------------------|-------------------| 
 
 
 
|--3--------3-------|--5--------5-------|--6--------6-------|-5--------10-------| 
|-----4--------4----|-----4--------4----|-----8--------8----|----8--------8-----| 
|--------5--------5-|--------5--------5-|--------7--------7-|-------7--------7--| 
|-------------------|-------------------|-------------------|-------------------| 
|-------------------|-------------------|-------------------|-------------------| 
|-------------------|-------------------|-------------------|-------------------| 
| 
| 
|-------------------|-------------------|-------------------|-------------------| 
|-------------------|-------------------|-------------------|-------------------| 
|-------------------|-------------------|-------------------|-------------------| 
|-------------------|-------------------|-------------------|-------------------| 
|-8--8--888---8--8--|-5--5--555---5--5--|-6--6--666---6--6--|-5--5--555---5--5--| 
|-------------------|-------------------|-------------------|-------------------| 
 
 
 
|--3--------3-------|--5--------5-------|--6--------6-------|-5------------5-5-5-5-5-5|| 
|-----4--------4----|-----4--------4----|-----8--------8----|----8---------8-8-8-8-8-8|| 
|--------5--------5-|--------5--------5-|--------7--------7-|-------7------7-7-7-7-7-7|| 
|-------------------|-------------------|-------------------|-------------------------|| 
|-------------------|-------------------|-------------------|-------------------------|| 
|-------------------|-------------------|-------------------|-------------------------|| 
| 
| 
|-------------------|-------------------|-------------------|-------------------------|| 
|-------------------|-------------------|-------------------|-------------------------|| 
|-------------------|-------------------|-------------------|-------------------------|| 
|-------------------|-------------------|-------------------|-------------------------|| 
|-8--8--888---8--8--|-5--5--555---5--5--|-6--6--666---6--6--|-101010101010101010101010|| 
|-------------------|-------------------|-------------------|-------------------------|| 
 
 
 
Outro 
 
 
||18-16-15-16-15----15-----|--------------------------|-------------------------- 
||----------------18--18-16|-18-16-15-16-15-13-15-13--|-13----------------------- 
||-------------------------|------------------------15|---15-13-15-13-12-13-12--- 
||-------------------------|--------------------------|-----------------------15- 
||-------------------------|--------------------------|-------------------------- 
||-------------------------|--------------------------|-------------------------- 
 
 |---------------------------||
 |---------------------------||
 |-12------------------------||
 |---15-13-15-13-12-13-12----||
 |------------------------15-||
 |---------------------------||

 
 
||--------------------------|--------------------------|-------------------------- 
||--------------------------|--------------------------|-------------------------- 
||--------------------------|--------------------------|-------------------------- 
||----------5----5-----5----|----5-----5----5----------|-----------5----5-----5--- 
||-3--3--6--3----3--6--3----|----3--6--3----3--6-------|--3--3--6--3----3--6--3--- 
||--------------------------|--------------------------|--------------------------
 
 |--------------------------||
 |--------------------------||
 |--------------------------||
 |----5-----5----5----------||
 |----3--6--3----3--6-------||
 |--------------------------||
 
 
|---------------------------|------8-8-8-8-8-8-8-8-8-| 
|---------------------------|------8-8-8-8-8-8-8-8-8-| 
|---------------------------|------------------------| 
|---------------------------|------------------------| 
|12-------------------------|------------------------| 
|--15-13-15-13--------------|-15/--------------------| 
|-------------16-15-16-15-13|------------------------| 
| 
| 
|---------------------------|------------------------| 
|---------------------------|------------------------| 
|---------------------------|------------------------| 
|----5-----5----5-----------|------------------------| 
|----3--6--3----3--6--------|-15/--3-3-3-3-3-3-3-3-3-| 
|---------------------------|------------------------| 
 
 
 
|-3----------|-4----------|------------|| 
|-4----------|-4----------|-8----------|| 
|-5----------|-5----------|-8----------|| 
|-5----------|-6----------|-8----------|| 
|------------|------------|------------|| 
|------------|------------|------------|| 
| 
| 
|------------|------------|------------|| 
|------------|------------|------------|| 
|------------|------------|------------|| 
|-5----------|------------|-8----------|| 
|-3----------|-6----------|-6----------|| 
|------------|-4----------|------------||
reproducciones 4.646
Acordes para:
    Composição: Julian Casablancas Colaboración y revision:
    • Marinna Mendes

    0 comentarios

    mostrar más comentarios

    ¿Conseguiste tocar?

    2 tocaron 0 aún no

    ¡Graba un vídeo tocando Heart In a Cage y envianoslo!

    00:00 / 00:00
    outros vídeos desta música
    repetir qualidade Automático
    Outros vídeos desta música
    00:00 / 00:00
    Automático
    OK