Cifra Club

I Can't Win

The Strokes

Tablatura: Principal (guitarra)
Tom: D
INTRO:___________________________________________________________|
NICK                                                            |
e|4~~~~~~~~~~~~~~~~~~~~~~~~~~~~~-|                               |
B|5~~~~~~~~~~~~~~~~~~~~~~~~~~~~~-|                               |
G|4~~~~~~~~~~~~~~~~~~~~~~~~~~~~~-|                               |
D|0~~~~~~~~~~~~~~~~~~~~~~~~~~~~~-|                               |
A|-------------------------------|                               |
E|-------------------------------|                               |
_|                               |                               |
e|x---x---x---x-x-x-x---x---x-x-x|x---x---x---x-x-x-x---x---x-x-x|
B|4---4---4---4-4-4-4---4---4-4-4|5---5---5---5-5-5-5---5---5-5-5| 
G|6---6---4---4-4-6-6---4---4-4-4|6---6---4---4-4-6-6---4---4-4-4|  2X
D|-------------------------------|-------------------------------|  /
A|-------------------------------|-------------------------------| /
E|-------------------------------|-------------------------------|/
_|_______________________________|_______________________________/                          
VERSE/VERSO:_____________________|_______________________________|                  
ALBERT                          |                               |
e|-------------------------------|-------------------------------|
B|-------------------------------|-------------------------------| 
G|-------------------------------|-------------------------------|  
D|-4---4---4-4-------------------|-4---4---4-4-------------------|   
A|---------------6-6---4---4-4-4-|---------------6-6---4---4-4-4-|    
E|-------------------------------|-------------------------------|     
_|                               |                               |      2X
e|-------------------------------|-------------------------------|     /
B|-------------------------------|-------------------------------|    /
G|-------------------------------|-------------------------------|   /
D|-2---2---2-2-------------------|-2---2---2-2-------------------|  /
A|---------------4-4---2---2-2-2-|---------------4-4---2---2-2-2-| /
E|-------------------------------|-------------------------------|/
_|_______________________________|_______________________________/
NICK                            |                               |
e|-2---2---2---2---2---2---2---2-|-2---2---2---2---2---2---2---2-|
B|-4---4---4---4---4---4---4---4-|-4---4---4---4---4---4---4---4-| 
G|-4---4---4---4---4---4---4---4-|-4---4---4---4---4---4---4---4-|  
D|-4---4---4---4---4---4---4---4-|-4---4---4---4---4---4---4---4-|   
A|-2---2---2---2---2---2---2---2-|-2---2---2---2---2---2---2---2-|    
E|-2---2---2---2---2---2---2---2-|-2---2---2---2---2---2---2---2-|     
 |                               |                               |      2X
e|-0---0---0---0---0---0---0---0-|-4---4---4---4---4---4---4---4-|     /
B|-0---0---0---0---0---0---0---0-|-6---6---6---6---6---6---6---6-|    /
G|-1---1---1---1---1---1---1---1-|-6---6---6---6---6---6---6---6-|   /
D|-2---2---2---2---2---2---2---2-|-6---6---6---6---6---6---6---6-|  /
A|-2---2---2---2---2---2---2---2-|-4---4---4---4---4---4---4---4-| /
E|-0---0---0---0---0---0---0---0-|-4---4---4---4---4---4---4---4-|/
_|_______________________________|_______________________________/
REFRÃO/CHORUS:___________________|_______________________________|
Repita a INTRO com 2 guitarras/Repeat the INTRO with 2 guitars   |     

_|_______________________________|______________________________/|
A PARTE DE/THE PART OF "OH I CAAAANNNT WIIINNN...":______________|
ALBERT                          |                               |
e|-------------------------------|-------------------------------|
B|-------------------------------|-------------------------------|
G|-------------------------------|-------------------------------|
D|9---9---9---9-9-9-9---9---9-9-9|8---8---8---8-8-8-8---8---8-8-8|
A|-------------------------------|-------------------------------|
E|-------------------------------|-------------------------------|
 |                               |                               |
e|-------------------------------|-------------------------------|
B|-------------------------------|-------------------------------|
G|-------------------------------|-------------------------------|
D|8---8---8---8-8-8-8---8---8-8-8|8---8---8---8-8-8-8---8---8-8-8|
A|-------------------------------|-------------------------------|
E|-------------------------------|-------------------------------|
_|_______________________________|______________________________/|
NICK                            |                               |
e|-------------------------------|-------------------------------|
b|-------12----------14--------12|-------------------------------|
g|13------------13--------13-----|-------15----------16--------15|
d|-------------------------------|14------------14--------14-----|
a|-------------------------------|-------------------------------|
e|-------------------------------|-------------------------------|
 |                               |                               |
e|-------------------------------|-------------------------------|
B|-------------------14----------|-------------------14----------|
G|-------15--------------------15|-------15--------------------15|
D|16------------16--------16-----|16------------16--------16-----|
A|-------------------------------|-------------------------------|
E|-------------------------------|-------------------------------|
_|_______________________________|______________________________/| 
SOLO:____________________________|_______________________________|
ALBERT                          |                               |
e|--3---3---3---3---3---3---3---3|--7---7---7---7---7---7---7---7|
B|--5---5---5---5---5---5---5---5|--9---9---9---9---9---9---9---9| 
G|--5---5---5---5---5---5---5---5|--9---9---9---9---9---9---9---9|  2X
D|5-------5-------5-------5------5/9------9-------9-------9------|  /
A|-------------------------------|-------------------------------| / 
E|-------------------------------|-------------------------------|/
_|_______________________________|_______________________________/
NICK           _________________|
e|--------9^-9-|--12---------------------------------------------------------------------|
B|9---11^------|13---13-11-------11--------------------------------------------9----11^-9|
G|--8----------|-----------13-11----11-10h14b10h14b10h14b10h14-11-9-12-9-12-11---11------|
D|-------------|-------------------------------------------------------------------------|
A|-------------|-------------------------------------------------------------------------|
E|-------------|-------------------------------------------------------------------------|
 |             |                                                                         |
e|9^-0-----0---|-------------------------------------------------------------------------|
B|-------------|--11-13--10-11--11-13--10-11--11--11-------------------------------------|
G|----14^---11^|12-----12-----12-----12-----12--12-----11-13--10-11--11-13--10-11--10--10|
D|-------------|-------------------------------------12-----12-----12-----12-----12--12--|
A|-------------|-------------------------------------------------------------------------|
E|-------------|-------------------------------------------------------------------------|
_|_____________|________________________________________________________________________/
O FIM/THE END:_|
ALBERT & NICK |_________________
e|-------------------------------|
B|-11-11---11-11---11-11---11-11-|
G|-11-11---11-11---11-11---11-11-|
D|-11-11---11-11---11-11---11-11-|
A|-09-09---09-09---09-09---09-09-|
E|-09-09---09-09---09-09---09-09-|
_|_______________________________/
reproducciones 942
Acordes para:
    Composição: Julian Casablancas Colaboración y revision:
    • Paulo Filho

    0 comentarios

    mostrar más comentarios

    ¿Conseguiste tocar?

    0 tocaron 0 aún no

    ¡Graba un vídeo tocando I Can't Win y envianoslo!

    00:00 / 00:00
    outros vídeos desta música
    repetir qualidade Automático
    Outros vídeos desta música
    00:00 / 00:00
    Automático
    OK