Cifra Club

Is This It

The Strokes

Tablatura: Principal (guitarra)
Tom: F
Intro

Sem guitarra(a intro é só com bateria)

Verse

--------------------------------|--------------------------------|
------10------10-----10-----10--|------11------11-----11-----11--|
--10------10------9------7------|--10------10------9------7------|
--------------------------------|--------------------------------|
--------------------------------|--------------------------------|
--------------------------------|--------------------------------|

F#                                      A#
Can't you see I'm trying, I don't even like it
                             F#
I'd just lied to get to your apartment
                                 A#
Now I'm staying there just for a while

I can't think 'cause I'm just way to tired


Chorus

        First guitar

  F               C

------------------------------|--------------------------|
------------------------------|--------------------------|
--10--7--10--7--10--7--10--7--|--9--7--9--7--9--7--9--7--|
------------------------------|--------------------------|
------------------------------|--------------------------|
------------------------------|--------------------------|

        Second guitar
--8---8---8---8---8---8---8---8---|--8---8---8---8---8---8---8---8---|
--8---8---8---8---8---8---8---8---|--10--10--10--10--10--10--10--10--|
--9---9---9---9---9---9---9---9---|--10--10--10--10--10--10--10--10--|
--10--10--10--10--10--10--10--10--|--10--10--10--10--10--10--10--10--|
--10--10--10--10--10--10--10--10--|--8---8---8---8---8---8---8---8---|
--8---8---8---8---8---8---8---8---|--8---8---8---8---8---8---8---8---|

F             C
        Is this it
F             C
        Is this it
F             C
        Is this it

Verse

Said they'd give you anything you ever wanted
When they lied I knew
We would just stay both children trying hard
Not to realize I was sitting right behind her


Bridge

C
Dear, can't you see
It's them it's not me
F
We're not enemies
We just disagree
C
If I was like him
All pissed in this bar
F
He changes his mind
Says I went too far
C
We all disagree
I think we should disagree, yeah

Chorus

Is this it
Is this it
Is this it

Verse

Can't you see I'm trying, I don't even like it
I'd just lied to get to your apartment
Now I'm staying there just for a while
I can't think 'cause I'm just way to tired

_______________________________________________________



Tab p/ Baixo
------------


G|------------------------------------------------------
D|------------0-3-3-5/3----------------0-2-2-3/2--------
A|------------------------------------------------------
E|-1-1---3-1--------------1-1---3-1---------------------

G|------------------------------------------------------
D|-------------0-3-3-5/3--------------0-5-5-7/5---------
A|-0-0---2-0--------------0-0---2-0---------------------
E|------------------------------------------------------

refrão

G|----------------------------3--2----------------------
D|-3--3-3------------3--3-3-----------------------------
A|---------3--3-3-------------------3-------------------
E|------------------------------------------------------


Eu acho que é isso...
reproducciones 2.624
Acordes para:
    Composição: Julian Casablancas Colaboración y revision:
    • Lucas Ribeiro
    • Jander faiad
    • arthurbrigatto

    0 comentarios

    mostrar más comentarios

    ¿Conseguiste tocar?

    7 tocaron 0 aún no

    ¡Graba un vídeo tocando Is This It y envianoslo!

    00:00 / 00:00
    outros vídeos desta música
    repetir qualidade Automático
    Outros vídeos desta música
    00:00 / 00:00
    Automático
    OK