Cifra Club

Ize Of The World Solo

The Strokes

Tablatura: Principal (guitarra)
Tom: D
E---------------------------|-------------------------------------|
B---------------------------|-------------------------------------|
G---------------------------|-------------------------------------|
D--------------------/13-11-|----9--------------------------------|
A----/11-10-11-12-11--------|------9-/12-11-7-9-10-11-------------|
E---------------------------|-------------------------------------|

E--------------------|--------------------------------------------|
B--------------------|--------------------------------------------|
G--------------------|--------------------------------------------|
D--------------------|--------------------------------------------|
A----/11-11-9--------|---------------------------/12-11-----------|
E------------12-11-9-|----4-5-6-7-9-10-11-10-11-------------------|

E-----------------------|-----------------------------------------|
B-----------------------|-----------------------------------------|
G-----------------------|----------------------------------/14-13-|
D----/14-14-13-11-------|-------------------11-12-13-12-13--------|
A-----------------14-12-|----11----11-12-14-----------------------|
E-----------------------|-------14--------------------------------|

E-----------------------|----------------------------------/17-16-|
B----/17-17-16-14-------|-------------------14-15-16-15-16--------|
G-----------------16-14-|----13----13-14-16-----------------------|
D-----------------------|-------16--------------------------------|
A-----------------------|-----------------------------------------|
E-----------------------|-----------------------------------------|

E-------19----17-16-------------|-------19----17-16---------------|
B----17----17-------19-16-17-19-|----17----17-------19-16---------|
G-------------------------------|-------------------------18-16---|
D-------------------------------|---------------------------------|
A-------------------------------|---------------------------------|
E-------------------------------|---------------------------------|
reproducciones 423
Acordes para:

    0 comentarios

    mostrar más comentarios

    ¿Conseguiste tocar?

    0 tocaron 0 aún no

    ¡Graba un vídeo tocando Ize Of The World Solo y envianoslo!

    00:00 / 00:00
    outros vídeos desta música
    repetir qualidade Automático
    Outros vídeos desta música
    00:00 / 00:00
    Automático
    OK