Cifra Club

Juicebox

The Strokes

Cifrado: Versão 2 (guitarra y guitarra eléctrica)
tono: C
Guitar  

b - Bend
S - Slide
INTRO

P.M.
A|--------1-0-----|  
E|0-0-3-0-----3-1-|    8 vezes

Riff 1
E|----------------------------|
B|----------------------------|
G|9-9--7-9-9--9-7-7--7-----7-7|
D|9-9--7-9-9--9-7-7--7-8-8-7-7|
A|7-7--5-7-7--7-5-5--5-8-8-5-5|
E|---------------------6-6----|   4 vezes

Riff da INTRO
Everybody sees me
But it's not that easy
Standing in my life fields
Standing in a light field
Waiting for some action
Waiting for some action over
Why won't you come over here?

Riff 1
Why won't you come over here?
We've got a city to love
Why won't you come over here?
We've got a city to love

Riff 2
E|--------------|--------------|--------------|--------------| --\
B|--------------|--------------|--------------|--------------|    \
G|3--3-3--------|3--3-3--------|3--3-3--------|3--3-3--------|    |
D|3--3-3--------|3--3-3--------|3--3-3--------|3--3-3--------|    |
A|1--1-1-------0|1--1-1-------0|1--1-1-------0|1--1-1-------1|    |
E|-------0-1-3--|--------0-1-3-|-------0-1-3--|-------0-1-3--|    \
                                                                   2 vezes
E|--------------|--------------|--------------|--------------|    /
B|--------------|--------------|--------------|--------------|    |
G|5--5-5--------|5--5-5--------|5--5-5--------|5--5-5--------|    |
D|5--5-5--------|5--5-5--------|5--5-5--------|5--5-5--------|    |
A|3--3-3-------1|3--3-3-------1|3--3-3-------1|3--3-3-------0|    /
E|-------0-1-3--|--------0-1-3-|-------0-1-3--|-------0-1-3--| --/

Old times, grudges
will die so slowly
I know you miss me
way I saw you

Riff 3
E|---------------------------------------------|
B|---------------------------------------------|
G|3-3-3-3-3-3--7-7-7-7-7--3-3-3-3-3------------|
D|3-3-3-3-3-3--7-7-7-7-7--3-3-3-3-3--3-3-3-3-3-|
A|1-1-1-1-1-1--5-5-5-5-5--x-x-x-x-x--3-3-3-3-3-|
E|------------------------3-3-3-3-3--1-1-1-1-1-|

You're cold           
You're so cold
You're so cold
You're so cold

SOLO
E|---------------------------|(Ouça o solo primeiro e vera que essa parte do solo a palhetada eh bm 
B|----------------------------| rapida)
G|12-12-12-12-12---12h14--12h14| 
D|12-12-12-12-12--14-----14----| --->  (algumas vezes)
A|-----------------------------|
E|-----------------------------|

E|------12-------12------|12-------12-----------|
B|11-12----11-12----11-12|---11-12----12-11-10--|
G|---------------------------------------------9|

E|---------------|-----|(notas na casa 12 igual ao inicio do solo)
B|12-12-12-12-14b|-----|
G|12-12-12-12-14b|19S--|
D|---------------|-----|
A|---------------|-----|
E|---------------|-----|

E|10-10----------------|9-9---------------|8-----------------|7-----------------|
B|------10---11-10-8---|----10---11-10-8--|----10---11-10-8--|----10---11-10-8--|
G|---------9----------9|-------9---------9|--9----9---------9|--9----9---------9|

E|10-10----------------|9-9---------------|
B|------10---11-10-8---|----10---11-10-8--|
G|---------9----------9|-------9---------9|

E|-------------------------12-----------------------|
B|---------12------15-12------15-12-------------12~-|
G|14p12-------14-12-----14-----------14-12------12~-|
D|-----14----------------------------------14-14----|

(repete inteira a musika)

Riff da INTRO
Nobody can see me
Everything's too easy
Standing in the light field
(Standing in the light field)
Waiting for some actress
(Waiting for some actress)
She said Why won't you come over here?

Riff 1
Why won't you come over here?
We've got a city to love
Why won't you come over here?
We've got a city to love

Riff 2
Old-time love songs
Will die so swiftly
You never trust me
For a while it was nice
But it's time to say goodbye

Riff 3
You're cold
You're so cold
You're so cold
You're so cold

Guitar 1

E|5--5-5-x-x-x-x|5--5-5-------|
B|6--6-6-x-x-x-x|6--6-6-------|
G|7--7-7-x-x-x-x|7--7-7-------|   (x2)
D|7--7-7-x-x-x-x|7--7-7-77-5--|
A|5--5-5-x-x-x-x|5--5-5------8|
E|--------------|-------------|

Guitar 2

E|x-x-x-x-x-x-x-x-x-x|
B|x-x-x-x-x-x-x-x-x-x|
G|x-x-x-x-x-x-x-x-x-x|
D|x-x-x-x-x-x-x-x-x-x|
A|x-x-x-x-x-x-x-x-x-x|
E|x-x-x-x-x-x-x-x-x-x|

No no no cold
You're so cold
You're so cold
Oh you're so cold!

vlw! =)
Composición de Julian Casablancas
Colaboración y revisión:
  • Rafael Braga
  • João Vilela
  • Mario Muraoka
82 vistas
    • ½ Tono
    • A
    • Bb
    • B
    • C
    • Db
    • D
    • Eb
    • E
    • F
    • F#
    • G
    • Ab
  • Agregar a la lista

    0 comentarios

    Ver todos los comentarios
    00:00 / 00:00
    Otros videos de esta canción
    Repetir Calidad Automático
    Otros videos de esta canción
    00:00 / 00:00
    Automático
    OK