Cifra Club

Life Is Simple In The Moonlight

The Strokes

Tablatura: Principal (guitarra)
Tom: A
Intro:

(Guitarra 1)
E|----------------------------------------------------------------|
B|-----------------------7-----7---7------------------------------|
G|----6-----6---6------7-----7-----------8-----8---8-----6---6---6|
D|--4-----4------/---9-----9-----9-----6-----6---------6---6------|
A|4-----4-----4----------------------6-----6-----6---4----4----4--|
E|----------------------------------------------------------------|

E|----------------------------------------------------------------|
B|-----------------------7-----7---7------------------------------|
G|----6-----6---6------7-----7-----------8-----8---8-----6---6----|
D|--4-----4------/---9-----9-----9-----6-----6---------6---6------|
A|4-----4-----4----------------------6-----6-----6---4----4----4\-|
E|----------------------------------------------------------------|

(Guitarra 2)
E|-----------------------------------------------------------|
B|-----------------------------------------------------------|\
G|-----------------------------------------------------------| \
D|x-x-6-x-x-6-x-x-6-x--x-x-4-x-x-4-x-x-4-x--x-x-8-x-x-8-x-x-8|  \
A|-----------------------------------------------------------|   \
E|-----------------------------------------------------------|    \
                                                                   (2x)
E|--------------------|                                           /
B|--------------------|                                          /
G|--------------------|                                         /
D|x-x-4-x-x-4-x-x-4-x-|                                        /
A|--------------------|                                       /
E|--------------------|                                      /

Parte 2:
E|----------------------------------------------------------------|
B|-------------------7--------------------------------------------|
G|6------------------7---------------8---------------6------------|
D|4------------------9---------------6---------------6------------| (2x)
A|4----------------------------------6---------------4------------|
E|----------------------------------------------------------------|

Verso 1:

(Guitarra 1)
E|------------------------------14-------14----14------------------------|
B|------14-------14----14----15-------15----------------16-------16----16|
G|---11-------11----------16-------16-------16-------13-------13---------|
D|11-------11-------11----------------------------13-------13-------13---|
A|-----------------------------------------------------------------------|
E|-----------------------------------------------------------------------|

E|------------------------|
B|------14-------14-----14|
G|---13-------13----------|
D|11-------11-------11----|
A|------------------------|
E|------------------------|

E|------------------------------14-------14----14------------------------|
B|------14-------14----14----15-------15----------------16-------16----16|
G|---11-------11----------16-------16-------16-------13-------13---------|
D|11-------11-------11----------------------------13-------13-------13---|
A|-----------------------------------------------------------------------|
E|-----------------------------------------------------------------------|
   (hard but the slide is an added track)
E|---------------------------------------------------10------10---10/12--|
B|------14-------14-----14/12---12------12---12---12------12-------------|
G|---13-------13-------------11------11----------------------------------|
D|11-------11-------11-----9-------9-------9----9-------9-------9--------|
A|-----------------------------------------------------------------------|
E|-----------------------------------------------------------------------|

E|-----------------------------------------------------------------------|
B|------12-------12----12-------12-------12----12------12------12---12/--|
G|---13-------13-------------13-------13------------11------11-----------|
D|------------------------------------------------9-------9-------9------|
A|14-------14-------14----14-------14-------14---------------------------|
E|-----------------------------------------------------------------------|
       (hard but the slide is an added track)             (last note rings)
E|------------------------------------------------------------------------12|
B|------15-------15/17----------12-------12----12-------12-------12----12---|
G|---16-------16-------16----13-------13-------------13-------13------------|
D|16-------16-------16------------------------------------------------------|
A|------------------------14-------14-------14----14-------14-------14------|
E|--------------------------------------------------------------------------|

(Guitarra 2)
E|-----------------------------------------------------------|
B|-----------------------------------------------------------|\
G|-----------------------------------------------------------| \
D|x-x-6-x-x-6-x-x-6-x--x-x-4-x-x-4-x-x-4-x--x-x-8-x-x-8-x-x-8|  \
A|-----------------------------------------------------------|   \
E|-----------------------------------------------------------|    \
                                                                   (2x)
E|--------------------|                                           /
B|--------------------|                                          /
G|--------------------|                                         /
D|x-x-4-x-x-4-x-x-4-x-|                                        /
A|--------------------|                                       /
E|--------------------|                                      /


E|--------------------|
B|--------------------|
G|--------------------|    (8x)
D|x-x-4-x-x-4-x-x-4-x-|
A|--------------------|
E|--------------------|

Refrão:

(Guitarra 1)
E|7-------5--------9--------7-------7--------5-------14-------12--------|
B|7-------5--------10-------9-------7--------5-------14-------12--------|
G|7-------6--------11-------9-------7--------6-------14-------13--------|
D|9-------7--------11-------9-------9--------7-------16-------14--------|
A|9-------7--------9--------7-------9--------7-------16-------14--------|
E|7-------5--------9--------7-------7--------5-------14-------12--------|

E|7-7-7-7-9-7-7-7|7-7-7-7-9-7-7-7|9-9-9-9-10-9-9-9|10-10-10-10-9-9-9-9|
B|7-7-7-7-9-7-7-7|9-9-9-9-9-9-9-9|9-9-9-9-10-9-9-9|10-10-10-10-9-9-9-9|
G|7-7-7-7---7-7-7|9-9-9-9---9-9-9|9-9-9-9----9-9-9|11-11-11-11-9-9-9-9|
D|---------------|---------------|----------------|-------------------|
A|---------------|---------------|----------------|-------------------|
E|---------------|---------------|----------------|-------------------|
  (strum 8 times)
E|7--------12--------9----------|
B|7--------12--------10---------|
G|7--------13--------11---------|
D|9--------14--------11---------|
A|9--------14--------9----------|
E|7--------12--------9----------|
(guitar tone change)
E|---------------------|----------------|--------------|-------------|
B|---------------------|----------------|--------------|-------------|
G|11-13-11-10--10-13-10|9-11-9-8--8-11-8|7-9-7-6--6-9-6|2/4\2\1------|
D|---------------------|----------------|--------------|-------------|
A|---------------------|----------------|--------------|-------------|
E|---------------------|----------------|--------------|-------------|

(Guitarra 2)
E|---------------------------------------------------------------|
B|---------------------------------------------------------------|
G|----7-------7-------6-------6-------2-------2-------1-------1--|
D|9-9---9-9-9---9-7-7---7---7---7\4-4---4-4-4---4-2-2---2-2-2---2|
A|---------------------------------------------------------------|
E|---------------------------------------------------------------|

E|---------------------------------------------------------------|
B|---------------------------------------------------------------|
G|----7-------7-------6-------6-------2-------2-------1-------1--|
D|9-9---9--9----9/7-7---7---7---7/4-4---4---4---4-2-2---2---2---2|
A|---------------------------------------------------------------|
E|---------------------------------------------------------------|

E|------------------------------------------------------------------------|
B|------------------------------------------------------------------------|
G|----7------7---------13-------13-------6------6---------11----------9---|
D|9-9---9--9---9-/14-14--14---14--14-7-7---7--7---7-12-12----12-11-11---11|
A|------------------------------------------------------------------------|
E|------------------------------------------------------------------------|

E|----------------------------------------------------------------------------|
B|----------------------------------------------------------------------------|
G|----7------7---------13---------13-------6-------6--------------------------|
D|9-9---9--9---9-/14-14--14-14-14---14-7-7---7---7---7-8-8-8\3--3-6-6-6\1--1--|
A|----------------------------------------------------------------------------|
E|----------------------------------------------------------------------------|

E|------------------------------|
B|------------------------------|
G|------------------------------|
D|------------------------------|
A|-9-9-9\4--4--0-0-0-4----------|
E|------------------------------|

(Verso)

Refrão 2:
E|7-------5--------9--------7-------7--------5-------14-------12--------|
B|7-------5--------10-------9-------7--------5-------14-------12--------|
G|7-------6--------11-------9-------7--------6-------14-------13--------|
D|9-------7--------11-------9-------9--------7-------16-------14--------|
A|9-------7--------9--------7-------9--------7-------16-------14--------|
E|7-------5--------9--------7-------7--------5-------14-------12--------|

E|7-7-7-7-9-7-7-7|7-7-7-7-9-7-7-7|9-9-9-9-10-9-9-9|10-10-10-10-9-9-9-9|
B|7-7-7-7-9-7-7-7|9-9-9-9-9-9-9-9|9-9-9-9-10-9-9-9|10-10-10-10-9-9-9-9|
G|7-7-7-7---7-7-7|9-9-9-9---9-9-9|9-9-9-9----9-9-9|11-11-11-11-9-9-9-9|
D|---------------|---------------|----------------|-------------------|
A|---------------|---------------|----------------|-------------------|
E|---------------|---------------|----------------|-------------------|
  (strum 8 times)
E|7--------12--------9-------14-------|
B|7--------12--------10------14-------|
G|7--------13--------11------14-------|
D|9--------14--------11------16-------|
A|9--------14--------9-------16-------|
E|7--------12--------9-------14-------|

(Guitarra 2)
E|---------------------------------------------------------------|
B|---------------------------------------------------------------|
G|----7-------7-------6-------6-------2-------2-------1-------1--|
D|9-9---9---9---9-7-7---7---7---7\4-4---4-4-4---4-2-2---2-2-2---2|
A|---------------------------------------------------------------|
E|---------------------------------------------------------------|

E|---------------------------------------------------------------|
B|---------------------------------------------------------------|
G|----7-------7-------6-------6-------2-------2-------1-------1--|
D|9-9---9--9----9/7-7---7---7---7/4-4---4---4---4-2-2---2---2---2|
A|---------------------------------------------------------------|
E|---------------------------------------------------------------|

E|------------------------------------------------------------------------|
B|------------------------------------------------------------------------|
G|----7------7---------13-------13-------6------6---------11----------9---|
D|9-9---9--9---9-/14-14--14---14--14-7-7---7--7---7-12-12----12-11-11---11|
A|------------------------------------------------------------------------|
E|------------------------------------------------------------------------|

E|-------------------------------------------------------------------------|
B|-------------------------------------------------------------------------|
G|----7------7---------13---------13-------6-------6---------11-13-11-9-7\6|
D|9-9---9--9---9-/14-14--14-14-14---14-7-7---7---7---7/12-12---------------|
A|-------------------------------------------------------------------------|
E|-------------------------------------------------------------------------|

Solo:

(Guitarra 1)
E|-------------------------------------------------------|
B|-------------------------7---9/-7/-5/-3----------------|
G|6----2/4-----------6/8\4---6------------4/6-9\-4/-7\-1-|
D|------------4/7\6--------------------------------------|
A|-------------------------------------------------------|
E|-------------------------------------------------------|

E|-------------------------------------------------------|
B|-------------------------------------------------------|
G|2-4--2-6--4-7--6-9--7-9-11--9-11-13--11-13-14--13-14---|
D|-------------------------------------------------------|
A|-------------------------------------------------------|
E|-------------------------------------------------------|

E|------------------------------------------------14-12----12-14b16--12--|
B|14-12-------12/14---12--14-12-------12/14-12----------12---------------|
G|------14-11-------------------14-11------------------------------------|
D|-----------------------------------------------------------------------|
A|-----------------------------------------------------------------------|
E|-----------------------------------------------------------------------|
                                        (here another guitar track comes in)
E|12-----------------------------------------------------------|
B|---16-14----14/16--14------------------------------5---------|
G|---------13------------6/7/9-11/9/7--------9\6-6/4--6/7/9/11-|
D|------------------------------------7/9/11-------------------|
A|-------------------------------------------------------------|
E|-------------------------------------------------------------|

E|---------------------------------------------------------------|
B|10\9-5--9-/7-3-7-\5-2-5-/3-p0----------------------------------|
G|---------------------------------------------------------------|
D|---------------------------------------------------------------|
A|---------------------------------------------------------------|
E|---------------------------------------------------------------|

(Guitarra 2)
E|---------------------------------------------------------------|
B|---------------------------------------------------------------|
G|----6-----6---6-----4-----4---4-----8-----8---8-----6----6---6-|
D|--4-----4---------4-----4---------6-----6---------6----6-------|
A|4-----4-----4---4-----4-----4---6-----6-----6---6----6-----6---|
E|---------------------------------------------------------------|

E|---------------------------------------------------------------|
B|---------------------------------------------------------------|
G|----6-----6---6-----4-----4------------------------------------|
D|--4-----4---------4-----4-----7\6-9------9--------9-----9-----2|
A|4-----4-----4---4-----4-----4--------11-----12-11----11---11--2|
E|--------------------------------------------------------------0|

(Guitarra 1)
E|7-------5--------9--------7-------7--------5-------14-------12--------|
B|7-------5--------10-------9-------7--------5-------14-------12--------|
G|7-------6--------11-------9-------7--------6-------14-------13--------|
D|9-------7--------11-------9-------9--------7-------16-------14--------|
A|9-------7--------9--------7-------9--------7-------16-------14--------|
E|7-------5--------9--------7-------7--------5-------14-------12--------|

E|7-------5--------12-------12------11-------9-------12-------12--------|
B|7-------5--------10-------12------12-------10------10-------12--------|
G|7-------6--------11-------13------10-------11------11-------13--------|
D|----------------------------------------------------------------------|
A|----------------------------------------------------------------------|
E|----------------------------------------------------------------------|

E|7-7-7-7-9-7-7-7|7-7-7-7-9-7-7-7|9-9-9-9-10-9-9-9|10-10-10-10-9-9-9-9|
B|7-7-7-7-9-7-7-7|9-9-9-9-9-9-9-9|9-9-9-9-10-9-9-9|10-10-10-10-9-9-9-9|
G|7-7-7-7---7-7-7|9-9-9-9---9-9-9|9-9-9-9----9-9-9|11-11-11-11-9-9-9-9|
D|---------------|---------------|----------------|-------------------|   (2x)
A|---------------|---------------|----------------|-------------------|
E|---------------|---------------|----------------|-------------------|

E|10------12----------|
B|12------12----------|
G|11------13----------|
D|--------------------|
A|--------------------|
E|--------------------|

E|17-17-17-17-----------------14--------14|
B|17-17-17-17-12-14-14-15--15----15--12---|
G|18-18-18-18-----------------------------|
D|----------------------------------------|
A|----------------------------------------|
E|----------------------------------------|

E|10------12-----17-----|
B|12------12-----17-----|
G|11------13-----18-----|
D|----------------------|
A|----------------------|
E|----------------------|

E|---------------------|----------------|--------------|-------------|
B|---------------------|----------------|--------------|-------------|
G|11-13-11-10--10-13-10|9-11-9-8--8-11-8|7-9-7-6--6-9-6|2/4\2\1------|
D|---------------------|----------------|--------------|-------------|
A|---------------------|----------------|--------------|-------------|
E|---------------------|----------------|--------------|-------------|
reproducciones 730
Acordes para:
    Composição: The Strokes Colaboración y revision:
    • Élison Duarte

    0 comentarios

    mostrar más comentarios

    ¿Conseguiste tocar?

    1 tocaron 0 aún no

    ¡Graba un vídeo tocando Life Is Simple In The Moonlight y envianoslo!

    00:00 / 00:00
    outros vídeos desta música
    repetir qualidade Automático
    Outros vídeos desta música
    00:00 / 00:00
    Automático
    OK