Cifra Club

Meet Me In The Bathroom

The Strokes

Tablatura: Principal (guitarra)
Tom: C
Figure #1
e----------------5------------------
b--8---8---8---8-----8---8---8-6----
g----7---7---7-----7---7---7-----7--
d-----------------------------------
a-----------------------------------
e-----------------------------------

e----------------5---5---5---7-5----
b--5---5---5---5---5---5---5--------
g----5---5---5----------------------
d-----------------------------------
a-----------------------------------
e-----------------------------------


Figure #2
e-------------------------------------------------------------------
b--8-8-8-8-8-8-8-8-7-7-7-7-7-7-7-7-5-5-5-5-5-5-5-5-7-7-7-7-7-7-7-7--
g--7-7-7-7-7-7-7-7-7-7-7-7-7-7-7-7-7-7-7-7-7-7-7-7-7-7-7-7-7-7-7-7--
d-------------------------------------------------------------------
a-------------------------------------------------------------------
e-------------------------------------------------------------------


Figure #3
e-8-8-8-8-8-8-8-8-8-8-8-8-8-8-8-8--
b-8-8-8-8-8-8-8-8-7-7-7-7-7-7-7-7--
g-7-7-7-7-7-7-7-7-7-7-7-7-7-7-7-7--
d----------------------------------
a----------------------------------
e----------------------------------


Figure #4
e--5-----5-----------------------------------------
b--------------8-----8-----7-----7-----8-----8-----
g-----5-----5-----5-----5-----5-----5-----5-----5--
d--------------------------------------------------
a--------------------------------------------------
e--------------------------------------------------


Outro
e--------------------------
b--8---7---5---8--7--7-7---
g--7---7---7---7--7--7-7---
d--------------------------
a--------------------------
e--------------------------
reproducciones 310
Acordes para:
    Composição: Julian Casablancas

    0 comentarios

    mostrar más comentarios

    ¿Conseguiste tocar?

    0 tocaron 0 aún no

    ¡Graba un vídeo tocando Meet Me In The Bathroom y envianoslo!

    00:00 / 00:00
    outros vídeos desta música
    repetir qualidade Automático
    Outros vídeos desta música
    00:00 / 00:00
    Automático
    OK