Cifra Club

New York City Cops

The Strokes

Tablatura: Principal (guitarra)
Tom: G
(Intro)  A A A A A A G G G G G

 A                                G         G          G
G|--------------------------------|---------------------------------|
D|--------------------------------|---------------------------------|
A|--------------------------------|---------------------------------| 2x
E|-5---5---5---5---5---5---5---5--|-3-------0---3-------0---3-------|

Am
Here in the streets so merchanised
G
Rise to the bottom of the meaning of life
Am
Studied all the rules I don't want no part
G
But I let you in just to break this heart
Am
Even though it was only one night
G
It was fucking strange

Am
Nina's in the bedroom
G
She said time to go now
D 
But leaving it ain't easy
E
I got to let go
E
I got to let go
G
And the hours they ran slow
I said everynight she just can't stop saying

(Refrão)
C
New York City cops
F
New York City cops
C
New York City cops
F                     
They ain't too smart

C
New York City cops
F
New York City cops
C
New York City cops
F                     G
They ain't too smart

(Solo)
G A E

e|-------------------------10b--8-----7h10-7---7h87h87h87h8 etc---
B|-10b--10b8---8--10b-8-----------10---------8--------------------
G|-----------9----------9-----------------------------------------
D|----------------------------------------------------------------
A|----------------------------------------------------------------
E|----------------------------------------------------------------

Am G 

e|--8----10----8----10----8-----7---10---7---10---7----
B|----10----10---10----10---10----8----8---8----8---8--
G|-----------------------------------------------------
D|-----------------------------------------------------
A|-----------------------------------------------------
E|-----------------------------------------------------

Am G

e|--8----10----8----10----8-----7---10---7---10---7-8--
B|----10----10---10----10---10----8----8---8----8------
G|-----------------------------------------------------
D|-----------------------------------------------------
A|-----------------------------------------------------
E|-----------------------------------------------------

Am
Kill me now cause I let you down
I swear one day I'm going to leave this town
G
Stop. 
Am
Yes I'm leaving
G
Cause it just won't work
Am
They act like Romans but they dress like Turks
G
Sometime in your prime
See me I like the summertime (but hey)

Am
Nina's in the bedroom
G
She said time to go now
D
But leaving it ain't easy
E
I got to let go
E
I got to let go oh
Am
Trapped in an apartment
G
She would not let them get her
D
She wrote it in a letter
E
I got to come clean
E
The authorities they've seen
G
Darling I'm somewhere in between
I said everynight, she just can't stop saying
C
New York City cops
F
New York City cops
C
New York City cops
F                     
They ain't too smart

C
New York City cops
F
New York City cops
C
New York City cops
F                     G
They ain't too smart
reproducciones 1.510
Acordes para:
    Colaboración y revision:
    • Daiane Baroni

    0 comentarios

    mostrar más comentarios

    ¿Conseguiste tocar?

    4 tocaron 0 aún no

    ¡Graba un vídeo tocando New York City Cops y envianoslo!

    00:00 / 00:00
    outros vídeos desta música
    repetir qualidade Automático
    Outros vídeos desta música
    00:00 / 00:00
    Automático
    OK