Cifra Club

Sagganuts

The Strokes

Tablatura: Principal (guitarra)
Tom: D
Tab: Mateus Pranzetti

b: Bend
s: slide
v: down
^: up
~: tremolo

Intro/Verse Riff: 
  v  ^     v   v   v 
e----------------------|
B----8----10--10--10---|
G----9-----9---9---9---|
D----9-----9---9---9---|
A--7-------------------|
E----------------------|

Pre-Chorus 1:
e------------------------------------------------------|
B----8-8-8-10-----8-8-9-10-------------10----8-8-8-10--|
G----9-9-9--9-----9-9-9--9----11-11-11--9----9-9-9--9--|
D----9-9-9--9-----9-9-9--9----11-11-11--9----9-9-9--9--|
A----7-7-7--------7-7-7--------9--9--9-------7-7-7-----|
E------------------------------------------------------| 

Chorus 1:
e-----------------|
B-----------------|
G--7--6--11-------|
D--7--6--11--7----|
A--5--4---9--7----|
E------------5----|

Verse Riff 
  v  ^     v   v   v 
e----------------------|
B----8----10--10--10---|
G----9-----9---9---9---|
D----9-----9---9---9---|
A--7-------------------|
E----------------------|

Pre-Chorus 2:
 Guitar 1
   Em  A 
e--0---0--|
B--0---2--|
G--0---2--|  
D--2---2--|
A--2---0--|
E--0------|

Guitar 2
e--------------------------|         |-----------------|
B--------------------------|         |-----------------|
G-9-9-11-11--12--12-11-11--|         |-9-9-11-11--12~~-|
D--------------------------| 6 times |-----------------|
A-7-7--9--9--10--10--9--9--|         |-7-7--9--9--10~~-|
E--------------------------|         |-----------------|

Guitar 2
  Em          A      Em          A      Em           A           <= Guitar 1
e--------------------------------------------------------------|
B-3-2-0---2-3-2-0----3-2-0---2-3-2-0----3-2-0--2-3--3s5--------|
G-----------------2------------------2-------------------------| 
D--------------------------------------------------------------|  
A--------------------------------------------------------------|
E--------------------------------------------------------------|
   Em           A
e-------------------------------|
B--8--8--8-8~~--10--10--10-10s--|
G-------------------------------|
D-------------------------------|
A-------------------------------|
E-------------------------------|

Chorus 2:
e----------------|
B----------------|
G-------11-------|
D-12-11--9--7----|
A-10--9--9--7----|
E-10--9-----5----|

Breakdown:  
e--------|
B--------| 
G---11---| (Play it many times in different ways)
D----x---|
A----9---| 
E--------|

Solo/End: 
e--------------------------16-16-16-14-14-14-14-14--------------------------------------|
B-15-15-15-15-15-15-15-15--------------------------15-15-15-15-15--14-14-14-14-14-14-14-|
G---------------------------------------------------------------------------------------|
D---------------------------------------------------------------------------------------|
A---------------------------------------------------------------------------------------|
E---------------------------------------------------------------------------------------|

e--14-14-14-16-16-16-16-16-17-17-17----------------------------16-16-16-14-14-14-14-14--|
B-------------------------------------15-15-15-15-15-15-15-15---------------------------| 
G---------------------------------------------------------------------------------------| 
D---------------------------------------------------------------------------------------|
A---------------------------------------------------------------------------------------| 
E---------------------------------------------------------------------------------------|

e----------------------------------14-14-14-16-16-16-16-16-17-17-17-----------------------| 
B-15-15-15-14-14-14-14-14-14-14-14----------------------------------15-15-15-15-15-15-15--|
G-----------------------------------------------------------------------------------------|
D-----------------------------------------------------------------------------------------|
A-----------------------------------------------------------------------------------------|
E-----------------------------------------------------------------------------------------|

e--16-16-16-14-14-14-14-14--------------------------14-14-14-14-14--16-16-16-16-16-16-16--| 
B--------------------------15-15-15-14-14-14-14-14----------------------------------------|
G-----------------------------------------------------------------------------------------|
D-----------------------------------------------------------------------------------------|
A-----------------------------------------------------------------------------------------|
E-----------------------------------------------------------------------------------------|

e-17-17-17-b17-b17-b17-b17--14s-----|
B-----------------------------------|
G-----------------------------------|
D-----------------------------------|
A-----------------------------------|
E-----------------------------------|
reproducciones 62
Acordes para:

    0 comentarios

    mostrar más comentarios

    ¿Conseguiste tocar?

    0 tocaron 0 aún no

    ¡Graba un vídeo tocando Sagganuts y envianoslo!

    00:00 / 00:00
    outros vídeos desta música
    repetir qualidade Automático
    Outros vídeos desta música
    00:00 / 00:00
    Automático
    OK