Cifra Club

Selfless

The Strokes

Cifrado: Principal (guitarra y guitarra eléctrica)
tono: A
[Primeira Parte]

F#m      B7            C#m7   G#m         F#m
  Can the dark side light my way? Oh, yeah, yeah
     B7        C#m7   G#m        F#m
Lay your hand across my face, yeah, yeah
    B7               C#m7
Time we lost, that's all my fault

[Refrão]

F#m   F#m6    F#m7    B7 F#m/B B7
Please don’t be    long
C#m7      C#7(4)   G#m/C#    F#m
'Cause I want     your   arms
F#m    F#m6   F#m7 B7 F#m/B B7
I   don't have fun
C#m7    C#7(4)    G#m/C#   A
With - out     your    love
F#m         B    E                A
Life is too short, but I will live for you

[Solo] F#m  B  C#m  C#m

[Parte 1]
E|----------------------------------------------------------------|
B|----------------------------------------------------------------|
G|-11/13-----11--13-----11--11p13--------------------9-9p11-------|
D|------------------13-------------14-13-14-16-14-13--------13-11-|
A|----------------------------------------------------------------|
E|----------------------------------------------------------------|
[Parte 2]
E|----------------------------------------------------------------|
B|----------------------------------------------------------------|
G|----9------------9/11~---------------------9/6--9/6---/14~------|
D|-13--13-11-------------13~--14-13-11------------------------13~-|
A|----------------------------------------------------------------|
E|----------------------------------------------------------------|
[Parte 3]
E|----------------------------------------------------------------|
B|----------------------------------------------------------------|
G|-----11--11p13---------------------9-9h11p9-----------9---------|
D|-----------------14-13-14-16-14-13----------13-11-13-------13-11|
A|----------------------------------------------------------------|
E|----------------------------------------------------------------|
[Parte 4]
E|--------------------|
B|--------------------|
G|---9/11~--8~--------|
D|--------------11~---|
A|--------------------|
E|--------------------|

[Segunda Parte]

F#m    B7             C#m7    G#m
How did this fit in your story? Yeah-eah
F#m     B7            C#m7   G#m
Why’d you let them judge your body? Yeah-eah
F#m      B7            C#m7   G#m
I've been waitin' there outside, yeah

[Refrão]

F#m   F#m6    F#m7    B7 F#m/B B7
Please don’t be    long
C#m7      C#7(4)   G#m/C#    F#m
'Cause I want     you    heart
F#m    F#m6   F#m7 B7 F#m/B B7
I   don't have fun
C#m7    C#7(4)     G#m/C#  A
With - out      you    love
F#m         B    E                A
Life is too short, but I will live for you
F#m    F#m6   F#m7    B7 F#m/B B7
You're mu  -cking off
  E                        A
But I will live for you, my selfless love

[Ponte]

F#m           B
Bite my tongue and wait my turn
  E        A
I waited for a century
F#m          B
Waste my breath, no lessons learned
E             A
I turn and face the enemy
     F#m             B
I'm not scared, just don’t care
     E               A
I’m not listening' and you’re here
      F#m           B
He's never dead, but I don't care
     E             A
I can't tell you what and where

F#m  B
Yeah-eah
E  A
Yeah-eah
00:00 / 00:00
Otros videos de esta canción
Repetir
Otros videos de esta canción
Composición de Julian Casablancas
Colaboración y revisión:
  • Joao Gomes
  • Braian Sanjulian
  • helmold
4.985 vistas
    • ½ Tono
    • A
    • Bb
    • B
    • C
    • Db
    • D
    • Eb
    • E
    • F
    • F#
    • G
    • Ab
  • Agregar a la lista

    0 comentarios

    Ver todos los comentarios
    00:00 / 00:00
    OK