Cifra Club

Taken For a Fool

The Strokes

Tablatura: Principal (guitarra)
Tom: G
Intro:
E|----------~----------------|
B|----------15(HOLD)~~~~~~---|
G|---------------------------|
D|---------------------------|
A|---------------------------|
E|---------------------------|

Verso:
E|------------------------------------------------------------------|
B|------------------------------------------------------------------|
G|---12-12----10--10--12/14--9-9---8-8----5-5--7/10-----------------|
D|----------12--12-----------------------7-7---------10-10----10-12-|
A|----------------------------------------------------------12------|
E|------------------------------------------------------------------|

Pré-Refrão:
E|-------10----------12----------15-----------13----|
B|----------10----------13----------15------15--15/-|
G|-/10-10------/12-12------/15-15------14-14--------|
D|--------------------------------------------------|
A|--------------------------------------------------|
E|--------------------------------------------------|

--------10-----------12---------15-----------------------|
----------10-----------13---------15--11111111-13131313--|
-/10-10-------/12-12------/15-15------10101010-12121212--|
---------------------------------------------------------|
---------------------------------------------------------|
---------------------------------------------------------|

Refrão:
E|----17----15------------------------13----12---------------------|
B|-13----13-----15151515-13131313--10----10-----11111111-13131313--|
G|--------------14141414-12121212---------------10101010-12121212--|
D|-----------------------------------------------------------------|
A|-----------------------------------------------------------------|
E|-----------------------------------------------------------------|

Solo:
E|------------------------------------------------------------|
B|---------11-10----------------------------------------------|
G|---------------12-10-10-12--12-------10-12----------10------|
D|-12-10-12----------------------10-12-------12-12-10----10-12|
A|------------------------------------------------------------|
E|------------------------------------------------------------|

--------------------------------------------------|
-11-10--------------------------------------------|
-------12-10-12---------------------------6-7-8-9-|
----------------------------------7-8-9-10--------|
--------------------------7-8-9-10----------------|
-----------------8-9-10-11------------------------|

Verso:
E|------------------------------------------------------------------|
B|------------------------------------------------------------------|
G|---12-12----10--10--12/14--9-9---8-8----5-5--7/10-----------------|
D|----------12--12-----------------------7-7---------10-10----10-12-|
A|----------------------------------------------------------12------|
E|------------------------------------------------------------------|

(Pré-Refrão)

E|-------10----------12----------15-----------13----|
B|----------10----------13----------15------15--15/-|
G|-/10-10------/12-12------/15-15------14-14--------|
D|--------------------------------------------------|
A|--------------------------------------------------|
E|--------------------------------------------------|

--------10-----------12---------15-----------------------|
----------10-----------13---------15--11111111-13131313--|
-/10-10-------/12-12------/15-15------10101010-12121212--|
---------------------------------------------------------|
---------------------------------------------------------|
---------------------------------------------------------|

Refrão:
E|----17----15------------------------13----12---------------------|
B|-13----13-----15151515-13131313--10----10-----11111111-13131313--|
G|--------------14141414-12121212---------------10101010-12121212--| 4x
D|-----------------------------------------------------------------|
A|-----------------------------------------------------------------|
E|-----------------------------------------------------------------|

Final:
E|----17----15--------------------|-----13----12--------------------|
B|-13----13-----15151515-13131313-|--10----10-----11111111-13131313-|
G|--------------14141414-12121212-|---------------10101010-12121212-|
D|--------------------------------|---------------------------------|
A|--------------------------------|---------------------------------|
E|--------------------------------|---------------------------------|

----13----12-----------------------|
-10----10-----111111-131313--10----|
--------------101010-121212-(10)---|
-----------------------------------|
-----------------------------------|
-----------------------------------|

(Guitarra 2)

Intro:
E|--------------------------------------------------------|
B|--------------------------------------------------------|
G|--------------------------------------------------------|
D|--------------------------------------------------------|
A|--------------------------------------------------------|
E|--------------------------------------------------------|

Verso:
E|------------------------------------------------------------------------------------------|
B|------------------------------------------------------------------------------------------|
G|--------------------------------------------99999999--------------------------------------|
D|-1212121212121212-10101010101010/14-9999999999999999-88888888-77777777-55555555-77777777--|
A|-1010101010101010--8-8-8-8-8-8-8/12-7777777777777777-66666666-55555555-33333333-55555555--|
E|------------------------------------------------------------------------------------------|

Pré-Refrão:
E|-----10------12------15---------10------12------15--------------------|
B|-----10------13------15-15------10------13------15-11111111-13131313--|
G|-/10-10--/12-12--/15-15-14--/10-10--/12-12--/15-15-10101010-12121212--|
D|----------------------------------------------------------------------|
A|----------------------------------------------------------------------|
E|----------------------------------------------------------------------|

Refrão:
E|-------------------------------------------------------------------------|
B|-1313131313131313-15151515-13131313--1010101010101010-11111111-13131313--|
G|-1212121212121212-14141414-12121212--1010101010101010-10101010-12121212--|
D|-------------------------------------------------------------------------|
A|-------------------------------------------------------------------------|
E|-------------------------------------------------------------------------|

(Solo)

Verso:
E|------------------------------------------------------------------------------------------|
B|------------------------------------------------------------------------------------------|
G|--------------------------------------------99999999--------------------------------------|
D|-1212121212121212-10101010101010/14-9999999999999999-88888888-77777777-55555555-77777777--|
A|-1010101010101010--8-8-8-8-8-8-8/12-7777777777777777-66666666-55555555-33333333-55555555--|
E|------------------------------------------------------------------------------------------|

Pré-Refrão:
E|-----10------12------15---------10------12------15--------------------|
B|-----10------13------15-15------10------13------15-11111111-13131313--|
G|-/10-10--/12-12--/15-15-14--/10-10--/12-12--/15-15-10101010-12121212--|
D|----------------------------------------------------------------------|
A|----------------------------------------------------------------------|
E|----------------------------------------------------------------------|

Refrão:
E|-------------------------------------------------------------------------|
B|-1313131313131313-15151515-13131313--1010101010101010-11111111-13131313--|
G|-1212121212121212-14141414-12121212--1010101010101010-10101010-12121212--|  (4x)
D|-------------------------------------------------------------------------|
A|-------------------------------------------------------------------------|
E|-------------------------------------------------------------------------|

Final:
                                                       (2x)
E|------------------------------------|--------------------------------------|--------------------|
B|-1313131313131313-15151515-13131313-|-101010101010101010-11111111-13131313-|-111111-131313--10--|
G|-1212121212121212-14141414-12121212-|-101010101010101010-10101010-12121212-|-101010-121212-(10)-|
D|------------------------------------|--------------------------------------|--------------------|
A|------------------------------------|--------------------------------------|--------------------|
E|------------------------------------|--------------------------------------|--------------------|
reproducciones 2.093
Acordes para:
    Composição: The Strokes Colaboración y revision:
    • Élison Duarte

    0 comentarios

    mostrar más comentarios

    ¿Conseguiste tocar?

    3 tocaron 2 aún no

    ¡Graba un vídeo tocando Taken For a Fool y envianoslo!

    00:00 / 00:00
    outros vídeos desta música
    repetir qualidade Automático
    Outros vídeos desta música
    00:00 / 00:00
    Automático
    OK