Cifra Club

Trying Your Luck

The Strokes

Tablatura: Principal (guitarra)
Tom: C
OBS.: O símbolo para levantar a corda eu naum sabia e substitui por 
Lc = Levanta Corda. 


Intro 1 2x: guitarra 1 - (Am F Dm G Em) - Esta parte é tocada no ritmo da guitarra Solo

Intro 2 2x: Guitarra 2 = Guitarra Solo
E|-------------------------------------------------------------------|
B|-------------------------------------------------------------------|
G|--5-5-5-5-5-5-5-Várias Vezes----------4-4-4-4-4-4-4-4-Poucas vezes-|

Am                      F
 You said you couldn't stay
Dm                    G       Em
 You've seen it all before, I know
Am                     F 
 It shows you on their way
Dm                  G
 Oh, honey, that's okay

Solo 1: Guitarra 2, acompanha os versos abaixo
D|-------------------------------------------------------------------|
A|--8-8-5-5-3-3-7-7--8-8-5-5-3-3-2-2---------------------------------|
E|-------------------------------------------------------------------|

Dm
 No harm, he's armed
Am
 Setting off all your alarms
Dm 
 When I find out
Am                     B
 I hope it's you who's set this trap


Intro 2: Guitarra 2, acompanha os versos abaixo

Am                    F
 And storefronts rarely changed
Dm                       G
 At least I'm on my own again
Em         Am             F
 Instead of anywhere with you
Dm                G            Em
 Oh, tell me it's all the same

Solo 2: Guitarra 2, acompanha o verso abaixo - Obs: A Base é a Intro 1
D|------------------------------------------------------------------------------------|
A|------------7-8-8-7-8--3-5-5-3-5--5-3-----5-7-7-5-7-----------7-8-8-7-8--3-5-5-3-5--|
E|--3-5-5-3-5---------------------------5-3-----------3-5-5-3-5-----------------------|

D|------------------------------------------------------------------------------------|
A|--5-3-----5-7-7-5-7-----------------------------------------------------------------|
E|------5-3---------------------------------------------------------------------------|

D|------------------------------------------------------------------------------------|
A|--8-8-5-5-3-3-7-7--8-8-5-5-3-3-2-2--------------------------------------------------|
E|------------------------------------------------------------------------------------|


     Am      F      Dm   G
 And I lost my place again
        Em                       
 I know this is so real
          Am     F        Dm   G
 But I'll try my luck with you


Emenda Solo 2 na Intro 2 2x : Guitarra 2, acompanha os versos abaixo
 
             Em    Am
 This life is on my side
F                Dm  G
 Well, I am your one
             Em                 Am    F Dm G Em
 Believe me, this is a chance oh oh oh

Am                 F
 I see what is for sale
Dm                   G              Em
 He's trying hard to give his job a chance
Am                    F
 Oh, it's never gonna be
Dm             G    Em 
 It's habit I agree


Intro 2: 2x Guitarra 2, acompanha os versos abaixo

Am                F
 The signal don't seem right
Dm                G             Em
 It last for just one night and then
Am                F
 I'm sorry that I said
Dm                 G            Em
 That we were just good friends


Solo 1: Guitarra 2, acompanha os versos abaixo

Dm
 No harm, he's armed
Am
 Setting off all your alarms
Dm
 It's right, I can't
Am                     B
 Be there in time, now think about that

Solo 3: Guitarra 2. Obs: Levanta a corda = Lc - Obs: a base é a Intro 1  
E|------------------------------------------------------------16Lc-14------------------|
B|-13-12----13-12----------13-15-15Lc-----------13-15-15Lc------------16-14------------|
G|-------14-------14-12/14------------14--12/14------------16---------------16-15------|

E|---------------------------------------------------------------14-14-14-13/14-14-14--|
B|-----------------------------14--14/16-16-16-14/16-16-16-14/16-----------------------|
G|-13/15--15-15--13/15--15-15----------------------------------------------------------|

E|--13/14-14--16-16-16-16-16/5---------------------------------------------------------|
B|-------------------------------------------------------------------------------------|
G|-------------------------------------------------------------------------------------|


Solo 2: Guitarra 2, acompanha os versos abaixo

        Am      F      Dm   G
 And I lost my place again
        Em                       
 I know this is so real
          Am     F        Dm   G
 But I'll try my luck with you
              Em    Am
 This life is on my side

Intro 2 2x: Guitarra 2, acompanha os versos abaixo

F                Dm  G
 Well, I am your one
             Em                 Am    F Dm G Em G G# Am
 Believe me, this is a chance oh oh oh


Por Vitor Magno - |-Fox-|
reproducciones 1.269
Acordes para:
    Composição: Julian Casablancas Colaboración y revision:
    • Vitor Magno

    0 comentarios

    mostrar más comentarios

    ¿Conseguiste tocar?

    5 tocaron 0 aún no

    ¡Graba un vídeo tocando Trying Your Luck y envianoslo!

    00:00 / 00:00
    outros vídeos desta música
    repetir qualidade Automático
    Outros vídeos desta música
    00:00 / 00:00
    Automático
    OK