Cifra Club

Whatever Happenned

The Strokes

Tablatura: Principal (guitarra)
Tom: E
(Intro)

PM............
e|------------
B|------------
G|------------
D|------------
A-22222222222-
E|------------

B
I want to be forgotten,
      E
and I don't want to be reminded.
          C#m
You said "please don't make this harder."
E
No, I won't yet.

B
I wanna be beside her,
E
She wanna be admired.
         C#m
You said "please don't make this harder."
E               E/G#
No, I won't yet.

(Solo)
e|--------------------------------
B|--------------------------------
G|-13----------------13----11-----  (2X)
D|---13-16--13---------13----13---
A|------------16-14------14----14-
E|--------------------------------

e|--------------------------------
B|-12-0-9-0-11--14-0-11-12--11-9--
G|--------------------------------  (2X)
D|--------------------------------
A|--------------------------------
E|--------------------------------

(2nd guitarra)

e|---------------------------
B|---------------------------
G|----------------9---8------
D|-9--8-----------11--9------
A|-11-9----------------------
E|---------------------------

(Refrão)
e|--------------------------------
B|--------------------------------
G|----------------9--------8------
D|-9--8-----------11-------9------
A|-11-9---------------------------
E|--------------------------------
  Oh dear, is it really all true?

G|-----------------------------9--------8-----------
D|-9--------8------------------11-------9-----------
A|-11-------9---------------------------------------
  Did they offend us and they want it to sound new?

G|-------------------9--------8--------
D|-9--------8--------11-------9--------
A|-11-------9--------------------------
  Top ten ideas for countdown shows...

G|--------------------------------9--------8------
D|-9---------8--------------------11-------9------
A|-11--------9------------------------------------
  Whose culture  is this and does anybody know?

G|------------------------9--------8----------
D|-9---------8------------11-------9----------
A|-11--------9--------------------------------
  I wait and tell myself "life ain't chess,"

G|--------------------------------------
D|-9-------8----------------------------
A|-11------9----------------------------
  But no one comes in and yes, you're alone...

e|-----------------------------
B|-----------------------------
G|-----------------------------
D|-13-13-13--13---13--13--13---  (4X)
A|-14-14-14-(11)-(11)(11)(11)--     
E|-----------------------------     
                                   
                 e|----------------
                 B|----------------
                 G|-18------13-----
                 D|-18------13-----
                 A|-16------11-----
                 E|----------------
You don't miss me, I know.

G|----------------9----------8------
D|-9--8-----------11---------9------
A|-11-9-----------------------------
  Oh Tennessee, what did you write?

G|------------------------9-----------8------
D|-9------8---------------11----------9------
A|-11-----9----------------------------------
  I come together in the middle of the night.

G|--------------------9--------8------
D|-9--8---------------11-------9------
A|-11-9-------------------------------
  Oh that's an ending I can't write, 'cause

G|--------------------------------------
D|-9-------8----------------------------
A|-11------9----------------------------
  I've got you to let me down.

PM............
e|------------
B|------------
G|------------
D|------------
A-22222222222
E|------------

B
I want to be forgotten,
      E
and I don't want to be reminded.
          C#m
You said "please don't make this harder."
E
No, I won't yet.

B
I wanna be beside her,
E
She wanna be admired.
         C#m
You said "please don't make this harder."
E               E/G#    
No, I won't yet.
reproducciones 572
Acordes para:
    Colaboración y revision:
    • Daiane Baroni
    • Roberto Filho

    0 comentarios

    mostrar más comentarios

    ¿Conseguiste tocar?

    1 tocaron 0 aún no

    ¡Graba un vídeo tocando Whatever Happenned y envianoslo!

    00:00 / 00:00
    outros vídeos desta música
    repetir qualidade Automático
    Outros vídeos desta música
    00:00 / 00:00
    Automático
    OK