Cifra Club

You Only Live Once

The Strokes

Tab de bajo: Versão 3
Tabber: Drew Thomson (*)

(Guitar Intro)

0:08
Intro

G|---------------------------------------------------------------------|
D|---------------------------------------------------------------------|
A|-7-7-7-7-7-7-7-7-7-7-7-7-7-7-7-7-------------------------------------| 2x
E|---------------------------------7-7-7-7-7-7-7-7/2-2-2-2-2-2-2-2-----|

0:24
Verse

G|---------------------------------------------------------------------|
D|---------------------------------------------------------------------|
A|-7-7-7-7-7-7-7-7-7-7-7-7-7-7-7-7-------------------------------------| 4x
E|---------------------------------7-7-7-7-7-7-7-7/2-2-2-2-2-2-2-2-----|
"Some people think they're always right......"

0:55
Chorus

G|---------------------------------------------------------------------|
D|-------6-------------------------------------------------------------| 
A|----7-----9---------6--9--7------------------------------------------| 3x
E|-9---------------7---------------------------------------------------|

G|---------------------------------------------------------------------|
D|-------6-------------------------------------------------------------| 
A|----7-----9---------6--9---------------------------------------------|
E|-9---------------7---------------------------------------------------|

1:25
Bridge

G|---------------------------------------------------------------------|
D|---------------------------------------------------------------------|
A|-7-7-7-7-7-7-7-7-7-7-7-7-7-7-7-7-------------------------------------| 2x
E|---------------------------------7-7-7-7-7-7-7-7/2-2-2-2-2-2-2-2-----|

1:42
Verse

G|---------------------------------------------------------------------|
D|---------------------------------------------------------------------|
A|-7-7-7-7-7-7-7-7-7-7-7-7-7-7-7-7-------------------------------------| 4x
E|---------------------------------7-7-7-7-7-7-7-7/2-2-2-2-2-2-2-2-----|

2:14
Chorus

G|---------------------------------------------------------------------|
D|-------6-------------------------------------------------------------| 
A|----7-----9---------6--9--7------------------------------------------| 4x
E|-9---------------7---------------------------------------------------|

2:45
Outro

G|---------------------------------------------------------------------|
D|---------------------------------------------------------------------|
A|-2-------------2--------------2--------------2-----------------------|
E|---------------------------------------------------------------------|

If you want any more tabs by this artist or you have any corrections for
this tab please e-mail me at * !
Composición de Julian Casablancas
15 vistas

0 comentarios

Ver todos los comentarios

¿Lograste tocar?

0 Tocaron 0 Aún no

¡Graba un video tocando You Only Live Once y envíanoslo!

00:00 / 00:00
Outros vídeos desta música
Repetir Calidad Automático
Outros vídeos desta música
00:00 / 00:00
Automático
OK