Cifra Club

You Only Live Once

The Strokes

Tab de bajo: Versão 2
Tabbed By : Chau
e-mail: *

Tuning: Standard

Intro (Bass comes in at 0:09)

G|---------------------------------------------------------------|
D|---------------------------------------------------------------|
A|--7-7-7-7-7-7-7-7-7-7-7-7--------------------------------------|
E|--------------------------7-7-7-7-7-7-2-2-2-2-2-2--------------| Repeat x2

Verse

G|---------------------------------------------------------------|
D|---------------------------------------------------------------|
A|--7-7-7-7-7-7-7-7-7-7-7-7--------------------------------------|
E|--------------------------7-7-7-7-7-7-2-2-2-2-2-2--------------| Repeat x4

Chorus

G|---------------------------------------------------------------|
D|---------------------------------------------------------------|
A|--4/7/11/9-let ring-2/6/9/7-let ring---------------------------|
E|---------------------------------------------------------------| Repeat x2

During Guitar Solo

G|---------------------------------------------------------------|
D|---------------------------------------------------------------|
A|--4/7/11/9-let ring-2/6/9/7-let ring---------------------------|
E|---------------------------------------------------------------| Repeat x2

Outro

G|---------------------------------------------------------------|
D|---------------------------------------------------------------|
A|---------------------------------------------------------------|
E|---7-------7-------7-------7-----------------------------------| 

Order:

Intro
Verse
Chorus
Guitar Solo
Verse 
Chorus
Guitar Solo
Outro

| /  slide up
| \  slide down
| h  hammer-on
| p  pull-off
| ~  vibrato
| +  harmonic
| x  Mute note
============================================================================
Composición de Julian Casablancas
20 vistas

0 comentarios

Ver todos los comentarios

¿Lograste tocar?

0 Tocaron 0 Aún no

¡Graba un video tocando You Only Live Once y envíanoslo!

00:00 / 00:00
Outros vídeos desta música
Repetir Calidad Automático
Outros vídeos desta música
00:00 / 00:00
Automático
OK