Cifra Club

You're So Right

The Strokes

Tablatura: Principal (guitarra)
Tom: C
Guitar 1:
E|--------------------------------------------------|
B|--------------------------------------------------|
G|--------------------------------------------------|   (2x)
D|--------------------------------------------------|
A|0-0-0-1---0---0-0-0-0-1---0---0-0-0-1--0----------|
E|------------------------------------------3-2-1---|

Guitar 2:
E|-----------------------|
B|-----------------------|
G|15-15-15-15-15-15-15-15|   (8x)
D|14-14-14-14-14-14-14-14|
A|-----------------------|
E|-----------------------|

Refrão:
E|-----------------------|
B|-----------------------|
G|15-15-15-15-15-15-15-15|
D|14-14-14-14-14-14-14-14|
A|-----------------------|
E|-----------------------|

Verso: "Girl I am on..."

Guitarra 1:
E|-------------------------------------------------------------|
B|-------11------------------11------------------10------------|
G|----12-----12----12-----12-----12----12-----12-----12----12--|
D|12------------12----12------------12----12------------12-----|
A|-------------------------------------------------------------|\
E|-------------------------------------------------------------| \
                                                                  \
E|-------------------------------------------------------------|   \
B|-------10------------------10------------------10------------|    \
G|----10-----10----10-----10-----10----10-----10-----10----10--|     \
D|10------------10----10------------10----10------------10-----|
A|-------------------------------------------------------------|      (2x)
E|-------------------------------------------------------------|
                                                                   /
E|------------------------------------|                           /
B|-------10---------------------------|                          /
G|----9------10----9/10--9------------|                         /
D|10------------10----------10----10--|                        /
A|-----------------------------12-----|                       /
E|------------------------------------|

Guitarra 2:
E|--------------------------------------------------------------|
B|--------------------------------------------------------------|
G|--------------------------------------------------------------|
D|7-----------5/7--------------------7-7/8--7--5--3-------------|
A|--------------------------------------------------------------|
E|--------------------------------------------------------------|

E|-------------------------------------------------------------------------|
B|-------------------------------------------------------------------------|
G|-------------------------------------------------------------------------|
D|5----------3/5---------------------5-5/7--5--3-----------------3----2----|
A|-------------------------------------------------------------------------|
E|-------------------------------------------------------------------------|

Solo:
Guitarra 2:
E|--------------------5---------------------------|
B|1-3-1-3/5--1----1-3---5~---1-3-1-3/5--1-3-------|
G|--------------2----------------------------2----|
D|------------------------------------------------|
A|------------------------------------------------|
E|------------------------------------------------|

E|----------5-----------------7h8p7p5-7p5---------------|
B|------3/5---8p5---5h8p5---5-------------8p5-8p5-8b10--|
G|5b7r5-----------7-------7-----------------------------|
D|------------------------------------------------------|
A|------------------------------------------------------|
E|------------------------------------------------------|

E|8-10-8-10s12--8-10------------------------------|
B|-------------------10--8--10b12r10\-------------|
G|------------------------------------------------|
D|------------------------------------------------|
A|------------------------------------------------|
E|------------------------------------------------|

(Verso 2)

Ponte:
E|-----------------------|-----------------------|
B|-----------------------|-----------------------|
G|-----------------------|-----------------------|
D|-----------------------|-----------------------|
A|12-12-12-12-12-12-12-12|12-12-12-12-12-12-12-12|
E|10-10-10-10-10-10-10-10|10-10-10-10-10-10-10-10|

E|-----------------------|-----------------------|
B|-----------------------|-----------------------|
G|-----------------------|-----------------------|
D|-----------------------|-----------------------|
A|10-10-10-10-10-10-10-10|10-10-10-10-10-10-10-10|
E|8--8--8--8--8--8--8--8-|-8--8--8--8--8--8--8--8|

E|---------------|---------------|
B|---------------|---------------|
G|---------------|---------------|
D|---------------|---------------|
A|5-5-5-5-5-5-5-5|5-5-5-5-5-5-5-5|
E|3-3-3-3-3-3-3-3|3-3-3-3-3-3-3-3|

Guitarra 1: 
E|---------------------------------------------------------------|
B|---------------------------------------------------------------|
G|7------8----7----5---8---7-5--3----7----5----3--2--------------|
D|---------------------------------------------------------------|
A|---------------------------------------------------------------|
E|---------------------------------------------------------------|

Guitarra 2:

E|------------------------|
B|------------------------|
G|15-15-15-15-15-15-15-15-|
D|14-14-14-14-14-14-14-14-|
A|------------------------|
E|------------------------|
reproducciones 267
Acordes para:
    Composição: The Strokes Colaboración y revision:
    • Élison Duarte

    0 comentarios

    mostrar más comentarios

    ¿Conseguiste tocar?

    0 tocaron 0 aún no

    ¡Graba un vídeo tocando You're So Right y envianoslo!

    00:00 / 00:00
    outros vídeos desta música
    repetir qualidade Automático
    Outros vídeos desta música
    00:00 / 00:00
    Automático
    OK