Cifra Club

A Pleasure To Have In Class

The Suicide File

Cifrado: Principal (guitarra y guitarra eléctrica)
Quer fazer aulas de música com a gente? Responda essas perguntas
e nos ajude nesse projeto! →
tono: G
I only separated the guitars when they were playing completely different things.
b - bend
/ - slide

Intro x2
e|-------------|
B|-------------|
G|----7--------|
D|-9--7--7--5--|
A|-9--5--7--5--|
E|-7-----5--3--|

Guitar 1 x8
e|--------------------------------|
B|--------------------------------|
G|-7-7------7-7-----7-7----9b-9b--|
D|-----9-7------9-7-----9---------|
A|--------------------------------|
E|--------------------------------|
Guitar 2 x1
e|-------------------------------------------------------------------|
B|-------------------------------------------------------------------|
G|----------------------------------7-7-7-7-7-7-7-7-7-7-7-7-7-7-7-7--|
D|-9-9-9-9-9-9-9-9-9-9-9-9-9-9-9-9--7-7-7-7-7-7-7-7-7-7-7-7-7-7-7-7--|
A|-9-9-9-9-9-9-9-9-9-9-9-9-9-9-9-9--5-5-5-5-5-5-5-5-5-5-5-5-5-5-5-5--|
E|-7-7-7-7-7-7-7-7-7-7-7-7-7-7-7-7-----------------------------------|
Guitar 2 x1
e|-------------------------------------------------------------------|
B|-------------------------------------------------------------------|
G|-------------------------------------------------------------------|
D|-7-7-7-7-7-7-7-7-7-7-7-7-7-7-7-7--5-5-5-5-5-5-5-5-5-5-5-5-5-5-5-5--|
A|-7-7-7-7-7-7-7-7-7-7-7-7-7-7-7-7--5-5-5-5-5-5-5-5-5-5-5-5-5-5-5-5--|
E|-5-5-5-5-5-5-5-5-5-5-5-5-5-5-5-5--3-3-3-3-3-3-3-3-3-3-3-3-3-3-3-3--|

Guitar 1 x4
e|-----------------------------------------------------------------------|
B|-----------------10-10-10-10-10-10------------------10-10-10-10-10-10--|
G|-7/9-9-9-9-9-9-9--------------------7/9-9-9-9-9-9-9--------------------|
D|-----------------------------------------------------------------------|
A|-----------------------------------------------------------------------|
E|-----------------------------------------------------------------------|

e|-----------------------------------------------------------|
B|-----------------10-10-10-10-10-10-------------------------|
G|-7/9-9-9-9-9-9-9--------------------7/9-9-9-9-9-9-9--7-----|
D|-----------------------------------------------------7--7--|
A|-----------------------------------------------------5--7--|
E|--------------------------------------------------------5--|
Guitar 2 x1 (plam mute it except the last 2 chords)
e|---------------------------------------------------------------------|
B|---------------------------------------------------------------------|
G|------------------------------------7-7-7-7-7-7-7-7-7-7-7-7-7-7-7-7--|
D|-9-9-9-9-9-9-9-9-9-9-9-9-9-9-9-9----7-7-7-7-7-7-7-7-7-7-7-7-7-7-7-7--|
A|-9-9-9-9-9-9-9-9-9-9-9-9-9-9-9-9----5-5-5-5-5-5-5-5-5-5-5-5-5-5-5-5--|
E|-7-7-7-7-7-7-7-7-7-7-7-7-7-7-7-7-------------------------------------|

e|-----------------------------------------------------------|
B|-----------------------------------------------------------|
G|-----------------------------------------------------7-----|
D|-7-7-7-7-7-7-7-7-7-7-7-7-7-7-7-7----5-5-5-5-5-5-5-5--7--7--|
A|-7-7-7-7-7-7-7-7-7-7-7-7-7-7-7-7----5-5-5-5-5-5-5-5--5--7--|
E|-5-5-5-5-5-5-5-5-5-5-5-5-5-5-5-5----3-3-3-3-3-3-3-3-----5--|

Verse x6
e|---------------------------------------------|
B|---------------------------------------------|
G|------------------7----------------------9b--|
D|-9-9-9-9-9-9-9-9--7-7---9-9-9-9-9-9-9-9------|
A|-9-9-9-9-9-9-9-9--5-7---9-9-9-9-9-9-9-9------|
E|-7-7-7-7-7-7-7-7----5---7-7-7-7-7-7-7-7------|

Chorus x2
e|-----------------------------------------------------|
B|-----------------------------------------------------|
G|--------------7-7-7-7-7-7----------------------------|
D|-9-9-9-9-9-9--7-7-7-7-7-7--7-7-7-7-7-7--5-5-5-5-5-5--|
A|-9-9-9-9-9-9--5-5-5-5-5-5--7-7-7-7-7-7--5-5-5-5-5-5--|
E|-7-7-7-7-7-7---------------5-5-5-5-5-5--3-3-3-3-3-3--|


Bridge x1
Guitar 1
e|-----------------------------------------------------------|
B|-----------------------------------------------------------|
G|-7/9-9-9-9-9--7/9-9-9-9-9--7/9-9-9-9-9--9/11-12-11-9/11/9--|
D|-x-x-x-x-x-x--x-x-x-x-x-x--x-x-x-x-x-x--x-x--x--x--x-x--x--|
A|-5/7-7-7-7-7--5/7-7-7-7-7--5/7-7-7-7-7--7/9--10-9--7/9-/7--|
E|-----------------------------------------------------------|

e|------------------------------------------------------|
B|------------------------------------------------------|
G|-7/9-9-9-9-9--9/11-11-11-11-11--11/12-12-12-12---7----|
D|-x-x-x-x-x-x--x-x--x--x--x--x---x--x--x--x--x----7-7--|
A|-5/7-7-7-7-7--7/9--9--9--9--9---9-/10-10-10-10---5-7--|
E|---------------------------------------------------5--|
Guitar 2
e|-----------------------------------------------------|
B|-----------------------------------------------------|
G|--------------7-7-7-7-7-7----------------------------|
D|-9-9-9-9-9-9--7-7-7-7-7-7--7-7-7-7-7-7--5-5-5-5-5-5--|
A|-9-9-9-9-9-9--5-5-5-5-5-5--7-7-7-7-7-7--5-5-5-5-5-5--|
E|-7-7-7-7-7-7---------------5-5-5-5-5-5--3-3-3-3-3-3--|

e|---------------------------------------------|
B|---------------------------------------------|
G|--------------7-7-7-7-7-7---------------7----|
D|-9-9-9-9-9-9--7-7-7-7-7-7--7-7-7-7-7-7--7-7--|
A|-9-9-9-9-9-9--5-5-5-5-5-5--7-7-7-7-7-7--5-7--|
E|-7-7-7-7-7-7---------------5-5-5-5-5-5----5--|

Fill x1
e|--------------------------------|
B|--------------------------------|
G|------------------7---------9b--|
D|-9-9-9-9-9-9-9-9--7-7---9-------|
A|-9-9-9-9-9-9-9-9--5-7---9-------|
E|-7-7-7-7-7-7-7-7----5---7-------|

Verse x2
e|---------------------------------------------|
B|---------------------------------------------|
G|------------------7----------------------9b--|
D|-9-9-9-9-9-9-9-9--7-7---9-9-9-9-9-9-9-9------|
A|-9-9-9-9-9-9-9-9--5-7---9-9-9-9-9-9-9-9------|
E|-7-7-7-7-7-7-7-7----5---7-7-7-7-7-7-7-7------|

Outro x4 then ending
e|-----------------------|----|
B|-----------------------|----|
G|------------------7----|----|
D|-9-9-9-9-9-9-9-9--7-7--|-9--|
A|-9-9-9-9-9-9-9-9--5-7--|-9--|
E|-7-7-7-7-7-7-7-7----5--|-7--|
Compositor não encontrado.
26 vistas
    • ½ Tono
    • A
    • Bb
    • B
    • C
    • Db
    • D
    • Eb
    • E
    • F
    • F#
    • G
    • Ab
  • Agregar a la lista

    0 comentarios

    Ver todos los comentarios

    ¿Lograste tocar?

    0 Tocaron 0 Aún no

    ¡Graba un video tocando A Pleasure To Have In Class y envíanoslo!

    00:00 / 00:00
    Outros vídeos desta música
    Repetir Calidad Automático
    Outros vídeos desta música
    00:00 / 00:00
    Automático
    OK