Cifra Club

Sweet Disposition

The Temper Trap

Cifrado: Principal (guitarra y guitarra eléctrica)
tono: F# (con acordes en la forma de D) Capotraste en 4ª casa
Introdução:
E|-------------------------------------------------------------------------|
B|-------------------------------------------------------------------------|
G|-------------------------------------------------------------------------|
D|--4-5-7-x-8--------------------------------------------------------------|
A|5------------------------------------------------------------------------|
E|-------------------------------------------------------------------------|

Verso 1:
E|-------------------------------------------------------------------------|
B|-------------------------------------------------------------------------|
G|-------------------------------------------------------------------------|
D|--4-5-7-x-4------------------------X4------------------------------------|
A|5----------------6-7-9-x-4-----------------------------------------------|
E|---------------7---------------------------------------------------------|

E|-------------------------------------------------------------------------|
B|-------------------------------------------------------------------------|
G|-------------------------------------------------------------------------|
D|7-x8----------------X2---------------------------------------------------|
A|5-----9-x4-5-x4----------------------------------------------------------|
E|------7----3-------------------------------------------------------------|

E|-------------------------------------------------------------------------|
B|-------------------------------------------------------------------------|
G|-------------------------------------------------------------------------|
D|--4-5-7-x4---------------------------------X2----------------------------|
A|5--------------6-7-9-x2------6-7-9-x2------------------------------------|
E|-------------7-------------3---------------------------------------------|

Pré-refrão:
E|-------------------------------------------------------------------------|
B|-------------------------------------------------------------------------|
G|-------------------------------------------------------------------------|
D|7-x8---------------------------------------------------------------------|
A|5------9-x4---5-x4----X2-------------------------------------------------|
E|-------7------3----------------------------------------------------------|

Refrão:
E|--------------------------------------------------------------------------|
B|--------------------------------------------------------------------------|
G|7-------------------------------------------------------------------------|
D|7-x4--9-------5------2----------------------------------------------------|
A|5-----9-x4----5-x4---2-x4-----------X4------------------------------------|
E|------7-------3------0----------------------------------------------------|

Interlúdio:
E|-------------------------------------------------------------------------|
B|-------------------------------------------------------------------------|
G|-------------------------------------------------------------------------|
D|7-----x16----------------------------------------------------------------|
A|5------------------------------------------------------------------------|
E|-------------------------------------------------------------------------|

Verso 2:
E|-------------------------------------------------------------------------|
B|-------------------------------------------------------------------------|
G|-------------------------------------------------------------------------|
D|7-5-4----x4--------------------------------------------------------------|
A|------5--------6-7-9-x2-----6-7-9-x2-----------X4------------------------|
E|-------------7------------3----------------------------------------------|

E|-------------------------------------------------------------------------|
B|-------------------------------------------------------------------------|
G|-------------------------------------------------------------------------|
D|7-x30----11---x2---------------------------------------------------------|
A|5--------9---------------------------------------------------------------|
E|-------------------------------------------------------------------------|

Refrão:
E|--------------------------------------------------------------------------|
B|--------------------------------------------------------------------------|
G|7-------------------------------------------------------------------------|
D|7-x4--9-------5------2----------------------------------------------------|
A|5-----9-x4----5-x4---2-x4-----------X8------------------------------------|
E|------7-------3------0----------------------------------------------------|

E|-------------------------------------------------------------------------|
B|-------------------------------------------------------------------------|
G|7------------------------------------------------------------------------|
D|7------------------------------------------------------------------------|
A|5------------------------------------------------------------------------|
E|-------------------------------------------------------------------------|

C         Am       C
Sweet disposition
  Am  Fm
Never too soon
C            Am       C
Oh, reckless abandon

Like no one's
Am  Fm   C
Watching you

A moment, a love
A dream, a laugh
A kiss, a cry
Our rights, our wrongs
A moment, a love
A dream, a laugh
A moment, a love
A dream, a laugh
Just stay there
'Cause I'll be comin' over
And while our bloods still young
It's so young, It runs
And we won't stop til it's over
Won't stop to surrender
Songs
Of desperation
I played them for you
A moment, a love
A dream, a laugh
A kiss, a cry
Our rights, our wrongs
A moment, a love
A dream, a laugh
A moment, a love
A dream, a laugh
Just stay there
'Cause I'll be comin' over
And while our bloods still young
It's so young, It runs
And we won't stop til it's over
Won't stop to surrender
A moment, a love
A dream, a laugh
A kiss, a cry
Our rights, our wrongs (won't stop til it's over)
A moment, a love
A dream, a laugh
A kiss, a cry
Our rights, our wrongs (won't stop til it's over)
A moment, a love
A dream, a laugh
A kiss, a cry
Our rights, our wrongs (won't stop til it's over)
A moment, a love
A dream, a laugh
A moment, a love (Won't stop to surrender)
A moment, a love
00:00 / 00:00
Otros videos de esta canción
Repetir
Otros videos de esta canción
Composición de Lorenzo Sillitto
Colaboración y revisión:
  • Adam Rocha
  • Jonathan Pessoa
1.038 vistas
    • ½ Tono
    • A
    • Bb
    • B
    • C
    • Db
    • D
    • Eb
    • E
    • F
    • F#
    • G
    • Ab
  • Agregar a la lista

    0 comentarios

    Ver todos los comentarios

    ¿Lograste tocar?

    2 Tocaron 0 Aún no

    ¡Graba un video tocando Sweet Disposition y envíanoslo!

    00:00 / 00:00
    OK