Cifra Club

Sleepwalker

The Wallflowers

Tablatura: Principal (guitarra)
Tom: G
Transcribed by: Arrigo C.A. 


----------------------------------------------------------------------- 
VERY SPECIAL THANKS TO "SEENO". HE ARRANGED THE CHORDS. THANKS DUDE!!!! 
----------------------------------------------------------------------- 

Standard tuning for both electric guitars. 

Ok this is the main picking guitar you can hear. 

Guitar1 
E--------------------------------------------------------------------------------- 
B------------13------------------------------13--------------------------------- 
G--12-11--------11-12-------------12-11-------^--11-12-------------------------- 
D-------12------------12----------------12----^---------12----------------------- 
A---------------------------------------------^---------------------------------- 
e---------------------------------------------^---------------------------------- 
                                              ^                                   
Guitar2       ^ 
      ^ 
When the 13th note is played for the second time, guitar2 comes with this quick play. 
E------------------------------------------------------------------------------ 
B------------------------------------------------------------------------------ 
G------------------------------------------------------------------------------ 
D------------------------------------------------------------------------------ 
A--------------------------------------------10-10-9-9-7-5-0-2----------------- 
e------------------------------------------------------------------------------ 
                                                                               
The basic verse chords are : Em G C C/B D 

Em                             G 
Maybe I could be the one they adore... 
           C       C/B       D 
I could be my reputation . . .  
Em           Am           D                          G  G/F# Em 
Sleepwalker don't be shy . . . it's just a matter of time . . . 
Em            A                D                 
You'll be the one who saves my life...when I'm jealously dreaming... 


Chorus: 

C     G          D         Em 
Cupid don't draw back your bow (clap,clap!!) 
G                              D      Em    
Sam didn't something something what I know . . . 
C     G         D    Em                 C 
Never be you're valentine . . .the sleepwalker in me...  
D                     Em 
god only knows that I tried....(intro) 


Guitar1 
E--------------------------------------------------------------------------------- 
B------------13------------------------------13--------------------------------- 
G--12-11--------11-12-------------12-11----------11-12-------------------------- 
D-------12------------12----------------12--------------12----------------------- 
A------------------------------------------------------------------------------- 
e------------------------------------------------------------------------------- 
                                                                                 
Guitar2        
       
E------------------------------------------------------------------------------ 
B------------------------------------------------------------------------------ 
G------------------------------------------------------------------------------ 
D------------------------------------------------------------------------------ 
A--------------------------------------------10-10-9-9-7-5-0-2----------------- 
e------------------------------------------------------------------------------ 
                                                                               

Change... 
D                     C              G  (G/F#) 
I'm in your movie and everyone looks sad.... 

(this goes for one or two more times, then Am - C - Am - D - Em) 

-+-+-+-+-+-+-+-+--+-+-+-+-+-+-+-+-+-+-+-+-+-+-+-+-+-+-+-+-+-+-+-+-+-+-+-+-+-+-+-+ 

Questions or comments I'll be glad to recieve at my e-mail. 
reproducciones 171
Acordes para:
    Composição: Jakob Dylan

    0 comentarios

    mostrar más comentarios

    ¿Conseguiste tocar?

    0 tocaron 0 aún no

    ¡Graba un vídeo tocando Sleepwalker y envianoslo!

    00:00 / 00:00
    outros vídeos desta música
    repetir qualidade Automático
    Outros vídeos desta música
    00:00 / 00:00
    Automático
    OK