Cifra Club

21st Century Blood

The Warning

Tablatura: Principal (guitarra)
Tom: G
Riff 1
E|-----------------------------|
B|-----------------------------|
G|-----------------------------|
D|-----------------------------|
A|--2-----------2--------------|
E|--0--3--5--3--0--3--5--5--3--|

Riff 2
E|--------------------------------------------------------------------------------|
B|--------------------------------------------------------------------------------|
G|-------7\9--7-----------7\9--7------------------------------7-------------------|
D|---------------9--7--5----------9\7--5--7--7--5--7--5--7/9-----9/7--5-----------|
A|--5\7------------------------------------------------------------------7--5--7--|
E|--------------------------------------------------------------------------------|

Riff 3
E|----------------------------------------------------------|
B|--10/12--12--12--10/12--12--12--10/12--12--12--10---------|
G|---------------------------------------------------12--9--|
D|----------------------------------------------------------|
A|----------------------------------------------------------|
E|----------------------------------------------------------|

Riff 4
E|-----------------------------------------------------------|
B|-----------------------------------------------------------|
G|-----------------------------------------------------------|
D|-----------------------------------------------------------|
A|--2--2--2--2-----------2--2--------7--7--7--7--9--9--9--9--|
E|--0--0--0--0--0--3--5--------5--3--5--5--5--5--7--7--7--7--|

(Intro Riff 1 3x)

Em
We're the new generation
G
lost our salvation
Am                        Bm
another problem to be solved
Em
We ́re the groundbreakers
G
honey living for the money
Am              Bm
21st century blood
Em
Immortal souls dying
G
empires are falling
Am                             Bm
we are just waiting to be crushed
Em
Politicians trying
G
but we know they're lying
Am                     Bm
every truth has been sold

(Riff 1)
eah eh eh eh yeah eh eh eh eh

(Guitar 2 Riff 2)
Em
We make buildings
G
when what we need are bridges
Am                          Bm
we are stuck within these walls

(Guitar 2 Riff 2)
Em
Everyone with blank faces 
G
trying to fill the blank spaces 
Am                         Bm
that we left a long time ago

(Riff 3)

Refrão:

(Riff 4)
Yeah! Yeah!
What will our future hold?
will we regret our addiction to the rush
yeah! Yeah!
we've always been crazy so
let's fly away
and roam through the world that is slowly burning in the flames

(Riff 1)
eh eh eh eh eh eh eh eh

Verso:

Em
Everyone's in depression
G
because of an obsession
Am                            Bm
with stereotypes around the world 
Em
Worldwide starvation
G
but in this situation
Am                       Bm
no one seems to care at all

(Guitar 2 Riff 2)
Em
Our communication
G
replaced by animation
Am                  Bm
television has control
Em
Every question answered
G
internet demands us
Am                    Bm
to worship it like a god

(Riff 3)

Refrão:

(Riff 4)
Yeah! Yeah!
what will our future hold?
will we regret our addiction to the rush
yeah! Yeah!
we've always been crazy so
let's fly away
and roam through the world that is slowly burning in the flames

Solo: C5 D5 G/B 4x
      C5 D5 B/D#

E|-------------------------------------------------------7h10p7--10/12--14b15--14--12--14--15b17--15--14--12-|
B|-----------------------------5-----7--8--7--5--7-----------------------------------------------------------|
G|-----------------------5--------------------------7~-------------------------------------------------------|
D|-----4--5-----4--5--5-----5------5-------------------------------------------------------------------------|
A|--3--------3-----------------------------------------------------------------------------------------------|
E|-----------------------------------------------------------------------------------------------------------|


E|---------10-----------------------------------------14/15--14------------10/12--12--12--12--10-------------|
B|--10/12------12\10--8--8--8--10/12--10~---------------------------------------------------------12--10-----|
G|-----------------------------------------11/12--11-------------11h12--9~--------------------------------12-|
D|-----------------------------------------------------------------------------------------------------------|
A|-----------------------------------------------------------------------------------------------------------|
E|-----------------------------------------------------------------------------------------------------------|


E|---------------------------------15--17--15--17/19--19--19--17/19--19--19--17/19--19--19--19--19--17-----------|
B|--10--10h12--10~---------15--17-----------------------------------------------------------------------19--17~--|
G|------------------14/16----------------------------------------------------------------------------------------|
D|---------------------------------------------------------------------------------------------------------------|
A|---------------------------------------------------------------------------------------------------------------|
E|---------------------------------------------------------------------------------------------------------------|

Refrão:

(Riff 4)
Yeah! Yeah!
what will our future hold?
will we regret our addiction to the rush
yeah! Yeah!
we've always been crazy so
let's fly away
and roam through the world that is slowly burning in the flames

(Riff 1)
eh eh eh eh eh eh eh eh eh eh eh yeaaah
reproducciones 91
Acordes para:
    Composição: The Warning Colaboración y revision:
    • Marcus Freitas

    0 comentarios

    mostrar más comentarios

    ¿Conseguiste tocar?

    1 tocaron 0 aún no

    ¡Graba un vídeo tocando 21st Century Blood y envianoslo!

    00:00 / 00:00
    outros vídeos desta música
    repetir qualidade Automático
    Outros vídeos desta música
    00:00 / 00:00
    Automático
    OK