Cifra Club

Copper Bullets

The Warning

Tablatura: Principal (guitarra)
Tom: A Afinação: Db Gb Cb E G Db
[Verse]

C#|-----------------------------------------------------------------------------|
G#|-----------------------------------------------------------------------------|
E|------------------------------------------------------------------------------|
B|------------------------------------------------------------------------------|
F#|--------7-----7-----------5-----5-----------3-----3--------2--3--5--3--2-----|
C#|--5--5-----5-----5--3--3-----3-----3--1--1-----1-----1--0-----------------3--|

Happy as can be
picture perfect reality

C#|-----------------------------------------------------------------------------|
G#|-----------------------------------------------------------------------------|
E|------------------------------------------------------------------------------|
B|------------------------------------------------------------------------------|
F#|--------7-----7-----------5-----5-----------3-----3--------2--3--5--3--2-----|
C#|--5--5-----5-----5--3--3-----3-----3--1--1-----1-----1--0-----------------3--|

not a worry or so it seems 
slowly their problem start to increase 

C#|-----------------------------------------------------------------------------|
G#|-----------------------------------------------------------------------------|
E|------------------------------------------------------------------------------|
B|------------------------------------------------------------------------------|
F#|--------7-----7-----------5-----5-----------3-----3--------2--3--5--3--2-----|
C#|--5--5-----5-----5--3--3-----3-----3--1--1-----1-----1--0-----------------3--|

He's afraid to hurt and 
she's afraid of him 
but nobody ever said a thing 

C#|---------------------------------------------------------------------------|
G#|---------------------------------------------------------------------------|
E|----------------------------------------------------------------------------|
B|----------------------------------------------------------------------------|
F#|--------7-----7-----------5-----5-----------3-----3--------2--3--5--3--2---|
C#|--5--5-----5-----5--3--3-----3-----3--1--1-----1-----1--0------------------|

He's a dangerous man 
and she's a lonely girl 
their picture perfect life
ain't so perfect anymore

[Bridge]

B5/F#        C#5/G#
There´s something
D5/A
Taking control
A5/E
What happens next
            E5           C#5/F
There is no way she could've known 

[Guitar lick]

C#|------------------|
G#|------------------|
E|-------------------|
B|-------------------|
F#|--7h8p7-----------|
C#|---------8--5-----|


[Chorus]

F#5                     D5
This love was just to much to take
     A5                    E5
the words come out like razor blades
F#5                D5
the pressure was just too much
A5              E5
just too much for you

F#5                      D5
The broken glass starts falling down
A5                 E5
her golden blood spills on the ground
F#5                D5
he grabs a gun the empty sound 
A5                       C#5
copper bullets ran her way
                   F#5
love will be her end 
          D5
eh eh eh eh eh eh eh
A5           E5
eh eh eh eh eh eh eh eh 
F#5          D5
eh eh eh eh eh eh eh
A5           E5
eh eh eh eh eh eh eh eh 

[Verse]

C#|-----------------------------------------------------------------------------|
G#|-----------------------------------------------------------------------------|
E|------------------------------------------------------------------------------|
B|------------------------------------------------------------------------------|
F#|--------7-----7-----------5-----5-----------3-----3--------2--3--5--3--2-----|
C#|--5--5-----5-----5--3--3-----3-----3--1--1-----1-----1--0-----------------3--|

Happy as can be
picture perfect reality 

C#|-----------------------------------------------------------------------------|
G#|-----------------------------------------------------------------------------|
E|------------------------------------------------------------------------------|
B|------------------------------------------------------------------------------|
F#|--------7-----7-----------5-----5-----------3-----3--------2--3--5--3--2-----|
C#|--5--5-----5-----5--3--3-----3-----3--1--1-----1-----1--0-----------------3--|

not a worry or so it seemed 
slowly their problems started to increase

C#|-----------------------------------------------------------------------------|
G#|-----------------------------------------------------------------------------|
E|------------------------------------------------------------------------------|
B|------------------------------------------------------------------------------|
F#|--------7-----7-----------5-----5-----------3-----3--------2--3--5--3--2-----|
C#|--5--5-----5-----5--3--3-----3-----3--1--1-----1-----1--0-----------------3--|

He's afraid to hurt 
but he already did 
and nobody ever said a thing

C#|---------------------------------------------------------------------------|
G#|---------------------------------------------------------------------------|
E|----------------------------------------------------------------------------|
B|----------------------------------------------------------------------------|
F#|--------7-----7-----------5-----5-----------3-----3--------2--3--5--3--2---|
C#|--5--5-----5-----5--3--3-----3-----3--1--1-----1-----1--0------------------|

He's a dangerous man 
she was a lonely girl 
their picture perfect lives 
ain't so perfect anymore 

[Bridge]

B5/F#        C#5/G#
There´s something
D5/A
Taking control
A5/E
What happens next
            E5           C#5/F
There is no way she could've known 

[Guitar lick]

C#|------------------|
G#|------------------|
E|-------------------|
B|-------------------|
F#|--7h8p7-----------|
C#|---------8--5-----|

[Chorus]

F#5                     D5
This love was just to much to take
     A5                    E5
the words come out like razor blades
F#5                D5
the pressure was just too much
A5              E5
just too much for you

F#5                      D5
The broken glass starts falling down
A5                 E5
her golden blood spills on the ground
       F#5                D5
he grabs a gun the empty sound 
A5                       C#5
copper bullets ran her way
                    
love will be her end 

[Outro]

B5/F#  C#5/G  D5/A  E5/B (2x)

F#5                    D5
He couldn't stand what he had done 
      A5               E5
the monster that he had become
F#5                D5
and the guilt was just too much 
A5               E5
so he grabbed the gun 

F#5              D5
He saw his lover on the ground 
       A5           E5
her golden blood spilled from her mouth 
F#5             D5
an echo of the empty sound
   A5                C#5
copper bullets ran his way
               F#5
love was their end
 
D5
eh eh eh eh eh eh eh
A5           E5
eh eh eh eh eh eh eh eh 
F#5          D5
eh eh eh eh eh eh eh
A5                       E5
Copper bullets ran their way 
                F#5
love was their end
reproducciones 35
Acordes para:
    Composição: The Warning Colaboración y revision:
    • Marcus Freitas

    0 comentarios

    mostrar más comentarios

    ¿Conseguiste tocar?

    0 tocaron 0 aún no

    ¡Graba un vídeo tocando Copper Bullets y envianoslo!

    00:00 / 00:00
    outros vídeos desta música
    repetir qualidade Automático
    Outros vídeos desta música
    00:00 / 00:00
    Automático
    OK