Cifra Club

Dust To Dust

The Warning

Tab de bajo: Principal
G|--------------------------------------------------------|
D|--------------------------------------------------------|
A|-----9--9-----9--9-----9-----10--10-----10--10-----10---|
E|--7--------7--------7-----7----------7----------7-------|
 
G|--------------------------------------------------------|
D|--------------------------------------------------------|
A|-----9--9-----9--9-----9-----10--10-----10--10-----10---|
E|--7--------7--------7-----7----------7----------7-------|
 
G|--------------------------------------------------------|
D|--------------------------------------------------------|
A|-----9--9-----9--9-----9-----10--10-----10--10-----10---|
E|--7--------7--------7-----7----------7----------7-------|
 
G|--------------------------------------------------------|
D|--------------------------------------------------------|
A|-----9--9-----9--9-----9-----10--10-----10--10-----10---|
E|--7--------7--------7-----7----------7----------7-------|
 
G|--------------------------------------------------------|
D|--------------------------------------------------------|
A|-----9--9-----9--9-----9-----10--10-----10--10-----10---|
E|--7--------7--------7-----7----------7----------7-------|
 
G|--------------------------------------------------------|
D|--------------------------------------------------------|
A|-----9--9-----9--9-----9-----10--10-----10--10-----10---|
E|--7--------7--------7-----7----------7----------7-------|
00:00 / 00:00
Otros videos de esta canción
Repetir
Otros videos de esta canción
Compositor no encontrado.
Colaboración y revisión:
  • Gustavo Rodrigues
125 vistas

0 comentarios

Ver todos los comentarios

¿Lograste tocar?

0 Tocaron 0 Aún no

¡Graba un video tocando Dust To Dust y envíanoslo!

00:00 / 00:00
OK