Cifra Club

Exterminated

The Warning

Tablatura: Principal (guitarra)
Tom: G
Intro 2x:
    G5            Eb5          C5           D5
E|------------------------------------------------------|
B|------------------------------------------------------|
G|---------------8--8---8--8--5--5---5--5--7--7---7--7--|
D|--5--5---5--5--8--8---8--8--5--5---5--5--7--7---7--7--|
A|--5--5---5--5--6--6---6--6--3--3---3--3--5--5---5--7--|
E|--3--3---3--3-----------------------------------------|

Verse:
G5
Everything is gray
      Eb5
All around me is decayed
C5                  D5
Darkness invades me again
G5
The blood is boiling in my veins
           Eb5
Anger is showing through my face
C5              D5
Clouding up my mind
G5
This destruction brings me pain
    Eb5
There is no other way
C5                  D5
I need to have my revenge

Chorus:
G5
Another war is beginning
        Eb5
More blood is spilling
  C5                      D5
Another soul is been taken away

E|---------------------|
B|---------------------|
G|---------------------|
D|---------------------|
A|--5p3--5p3-----------|
E|------------6--5--3--|

G5
Another storm is growing
Eb5
More wind is blowing
   C5                     D5
A hurricane that won't go away
Till it's all exterminated

    G5            Eb5          C5           D5
E|-----------------------------------------------------------|
B|-----------------------------------------------------------|
G|---------------8--8---8--8--5--5---5--5--7--7--------------|
D|--5--5---5--5--8--8---8--8--5--5---5--5--7--7--------------|
A|--5--5---5--5--6--6---6--6--3--3---3--3--5--5--------1-----|
E|--3--3---3--3----------------------------------1--3-----3--|

Verse:
G5
There is no escape
        Eb5
From the visions in my head
    C5                     D5
It feels like I've been in hell
G5
I won't rest until is over
            Eb5
Must put an end to this disorder
  C5                     D5
I want the light back in my life
         G5
We were supposed to help each other
       Eb5
But instead now I just wonder
C5                    D5
When will I have my revenge?

Chorus:
G5
Another war is beginning
        Eb5
More blood is spilling
  C5                      D5
Another soul is been taken away

G5
Another storm is growing
    Eb5
More wind is blowing
  C5                     D5
A hurricane that won't go away
Till it's all exterminated

Solo:
    G5            Eb5          C5           D5
E|------------------------------------------------------|
B|------------------------------------------------------|
G|---------------8--8---8--8--5--5---5--5--7--7---7--7--|
D|--5--5---5--5--8--8---8--8--5--5---5--5--7--7---7--7--|
A|--5--5---5--5--6--6---6--6--3--3---3--3--5--5---5--7--|
E|--3--3---3--3-----------------------------------------|

Base 2x: ( G5  Eb5  C5  D5 )

Chorus:
G5
Another war is beginning
        Eb5
More blood is spilling
  C5                      D5
Another soul is been taken away

E|---------------------|
B|---------------------|
G|---------------------|
D|---------------------|
A|--5p3--5p3-----------|
E|------------6--5--3--|

G5
Another storm is growing
Eb5
More wind is blowing
   C5                     D5
A hurricane that won't go away
Till it's all exterminated

    G5            Eb5          C5           D5
E|------------------------------------------------------|
B|------------------------------------------------------|
G|---------------8--8---8--8--5--5---5--5--7--7---7--7--|
D|--5--5---5--5--8--8---8--8--5--5---5--5--7--7---7--7--|
A|--5--5---5--5--6--6---6--6--3--3---3--3--5--5---5--7--|
E|--3--3---3--3-----------------------------------------|

Till it's all exterminated

    G5            Eb5          C5           D5
E|-----------------------------------------------------------|
B|-----------------------------------------------------------|
G|---------------8--8---8--8--5--5---5--5--7--7--------------|
D|--5--5---5--5--8--8---8--8--5--5---5--5--7--7--------------|
A|--5--5---5--5--6--6---6--6--3--3---3--3--5--5--------1-----|
E|--3--3---3--3----------------------------------1--3-----3--|

E|-----------------------------------------------------------------------------------|
B|-----------------------------------------------------------------------------------|
G|-------------------------------------------------------------------------5--3------|
D|--5p3--5p3-----5--3--5p3--5p3-----5--3--5p3--5p3-----5--3--5p3--5p3------5--3--5---|
A|------------5------------------5------------------5-------------------5--------5---|
E|-----------------------------------------------------------------------------------|
reproducciones 24
Acordes para:
    Composição: The Warning Colaboración y revision:
    • Marcus Freitas

    0 comentarios

    mostrar más comentarios

    ¿Conseguiste tocar?

    0 tocaron 0 aún no

    ¡Graba un vídeo tocando Exterminated y envianoslo!

    00:00 / 00:00
    outros vídeos desta música
    repetir qualidade Automático
    Outros vídeos desta música
    00:00 / 00:00
    Automático
    OK